  0
SECTION
  2
HEADER
  9
$ACADVER
  1
AC1014
  9
$ACADMAINTVER
 70
     0
  9
$DWGCODEPAGE
  3
DOS932
  9
$INSBASE
 10
0.0
 20
0.0
 30
0.0
  9
$EXTMIN
 10
18.0
 20
7.0
 30
0.0
  9
$EXTMAX
 10
402.387117
 20
289.0
 30
0.0
  9
$LIMMIN
 10
0.0
 20
0.0
  9
$LIMMAX
 10
420.0
 20
297.0
  9
$ORTHOMODE
 70
     0
  9
$REGENMODE
 70
     1
  9
$FILLMODE
 70
     1
  9
$QTEXTMODE
 70
     0
  9
$MIRRTEXT
 70
     1
  9
$DRAGMODE
 70
     2
  9
$LTSCALE
 40
1.0
  9
$OSMODE
 70
     0
  9
$ATTMODE
 70
     1
  9
$TEXTSIZE
 40
0.2
  9
$TRACEWID
 40
0.05
  9
$TEXTSTYLE
  7
STANDARD
  9
$CLAYER
  8
LAY-5
  9
$CELTYPE
  6
CONTINUOUS
  9
$CECOLOR
 62
   256
  9
$CELTSCALE
 40
1.0
  9
$DELOBJ
 70
     1
  9
$DISPSILH
 70
     0
  9
$DIMSCALE
 40
1.0
  9
$DIMASZ
 40
0.18
  9
$DIMEXO
 40
0.0625
  9
$DIMDLI
 40
0.38
  9
$DIMRND
 40
0.0
  9
$DIMDLE
 40
0.0
  9
$DIMEXE
 40
0.18
  9
$DIMTP
 40
0.0
  9
$DIMTM
 40
0.0
  9
$DIMTXT
 40
0.18
  9
$DIMCEN
 40
0.09
  9
$DIMTSZ
 40
0.0
  9
$DIMTOL
 70
     0
  9
$DIMLIM
 70
     0
  9
$DIMTIH
 70
     1
  9
$DIMTOH
 70
     1
  9
$DIMSE1
 70
     0
  9
$DIMSE2
 70
     0
  9
$DIMTAD
 70
     0
  9
$DIMZIN
 70
     0
  9
$DIMBLK
  1

  9
$DIMASO
 70
     1
  9
$DIMSHO
 70
     1
  9
$DIMPOST
  1

  9
$DIMAPOST
  1

  9
$DIMALT
 70
     0
  9
$DIMALTD
 70
     2
  9
$DIMALTF
 40
25.4
  9
$DIMLFAC
 40
1.0
  9
$DIMTOFL
 70
     0
  9
$DIMTVP
 40
0.0
  9
$DIMTIX
 70
     0
  9
$DIMSOXD
 70
     0
  9
$DIMSAH
 70
     0
  9
$DIMBLK1
  1

  9
$DIMBLK2
  1

  9
$DIMSTYLE
  2
STANDARD
  9
$DIMCLRD
 70
     0
  9
$DIMCLRE
 70
     0
  9
$DIMCLRT
 70
     0
  9
$DIMTFAC
 40
1.0
  9
$DIMGAP
 40
0.09
  9
$DIMJUST
 70
     0
  9
$DIMSD1
 70
     0
  9
$DIMSD2
 70
     0
  9
$DIMTOLJ
 70
     1
  9
$DIMTZIN
 70
     0
  9
$DIMALTZ
 70
     0
  9
$DIMALTTZ
 70
     0
  9
$DIMFIT
 70
     3
  9
$DIMUPT
 70
     0
  9
$DIMUNIT
 70
     2
  9
$DIMDEC
 70
     4
  9
$DIMTDEC
 70
     4
  9
$DIMALTU
 70
     2
  9
$DIMALTTD
 70
     2
  9
$DIMTXSTY
  7
STANDARD
  9
$DIMAUNIT
 70
     0
  9
$LUNITS
 70
     2
  9
$LUPREC
 70
     4
  9
$SKETCHINC
 40
0.1
  9
$FILLETRAD
 40
0.0
  9
$AUNITS
 70
     0
  9
$AUPREC
 70
     0
  9
$MENU
  1
acad
  9
$ELEVATION
 40
0.0
  9
$PELEVATION
 40
0.0
  9
$THICKNESS
 40
0.0
  9
$LIMCHECK
 70
     0
  9
$BLIPMODE
 70
     1
  9
$CHAMFERA
 40
0.0
  9
$CHAMFERB
 40
0.0
  9
$CHAMFERC
 40
0.0
  9
$CHAMFERD
 40
0.0
  9
$SKPOLY
 70
     0
  9
$TDCREATE
 40
2453897.392764063
  9
$TDUPDATE
 40
2453897.392764063
  9
$TDINDWG
 40
0.0000000000
  9
$TDUSRTIMER
 40
0.0000000000
  9
$USRTIMER
 70
     1
  9
$ANGBASE
 50
0.0
  9
$ANGDIR
 70
     0
  9
$PDMODE
 70
     0
  9
$PDSIZE
 40
0.0
  9
$PLINEWID
 40
0.0
  9
$COORDS
 70
     1
  9
$SPLFRAME
 70
     0
  9
$SPLINETYPE
 70
     6
  9
$SPLINESEGS
 70
     8
  9
$ATTDIA
 70
     0
  9
$ATTREQ
 70
     1
  9
$HANDLING
 70
     1
  9
$HANDSEED
  5
862
  9
$SURFTAB1
 70
     6
  9
$SURFTAB2
 70
     6
  9
$SURFTYPE
 70
     6
  9
$SURFU
 70
     6
  9
$SURFV
 70
     6
  9
$UCSNAME
  2

  9
$UCSORG
 10
0.0
 20
0.0
 30
0.0
  9
$UCSXDIR
 10
1.0
 20
0.0
 30
0.0
  9
$UCSYDIR
 10
0.0
 20
1.0
 30
0.0
  9
$PUCSNAME
  2

  9
$PUCSORG
 10
0.0
 20
0.0
 30
0.0
  9
$PUCSXDIR
 10
1.0
 20
0.0
 30
0.0
  9
$PUCSYDIR
 10
0.0
 20
1.0
 30
0.0
  9
$USERI1
 70
     0
  9
$USERI2
 70
     0
  9
$USERI3
 70
     0
  9
$USERI4
 70
     0
  9
$USERI5
 70
     0
  9
$USERR1
 40
0.0
  9
$USERR2
 40
0.0
  9
$USERR3
 40
0.0
  9
$USERR4
 40
0.0
  9
$USERR5
 40
0.0
  9
$WORLDVIEW
 70
     1
  9
$SHADEDGE
 70
     3
  9
$SHADEDIF
 70
    70
  9
$TILEMODE
 70
     1
  9
$MAXACTVP
 70
    16
  9
$PINSBASE
 10
0.0
 20
0.0
 30
0.0
  9
$PLIMCHECK
 70
     0
  9
$PEXTMIN
 10
1.000000E+20
 20
1.000000E+20
 30
1.000000E+20
  9
$PEXTMAX
 10
-1.000000E+20
 20
-1.000000E+20
 30
-1.000000E+20
  9
$PLIMMIN
 10
0.0
 20
0.0
  9
$PLIMMAX
 10
12.0
 20
9.0
  9
$UNITMODE
 70
     0
  9
$VISRETAIN
 70
     0
  9
$PLINEGEN
 70
     1
  9
$PSLTSCALE
 70
     0
  9
$TREEDEPTH
 70
  3020
  9
$PICKSTYLE
 70
     1
  9
$CMLSTYLE
  2
Standard
  9
$CMLJUST
 70
     0
  9
$CMLSCALE
 40
1.0
  9
$PROXYGRAPHICS
 70
     0
  9
$MEASUREMENT
 70
     0
  0
ENDSEC
  0
SECTION
  2
CLASSES
  0
CLASS
  1
LWPOLYLINE
  2
AcDbPolyline
  3
"AutoCAD"
 90
        0
280
     0
281
     1
  0
CLASS
  1
IMAGE
  2
AcDbRasterImage
  3
ISM
 90
      127
280
     0
281
     1
  0
CLASS
  1
OLE2FRAME
  2
AcDbOle2Frame
  3
""
 90
        0
280
     0
281
     1
  0
CLASS
  1
HATCH
  2
AcDbHatch
  3
"ACAD_SEDONA"
 90
        0
280
     0
281
     1
  0
CLASS
  1
DICTIONARYVAR
  2
AcDbDictionaryVar
  3
"AutoCAD"
 90
        0
280
     0
281
     0
  0
CLASS
  1
RASTERVARIABLES
  2
AcDbRasterVariables
  3
ISM
 90
        0
280
     0
281
     0
  0
CLASS
  1
IMAGEDEF
  2
AcDbRasterImageDef
  3
ISM
 90
        0
280
     0
281
     0
  0
CLASS
  1
IMAGEDEF_REACTOR
  2
AcDbRasterImageDefReactor
  3
ISM
 90
        1
280
     0
281
     0
  0
CLASS
  1
IDBUFFER
  2
AcDbIdBuffer
  3
"Acad"
 90
        0
280
     0
281
     0
  0
CLASS
  1
SPATIAL_FILTER
  2
AcDbSpatialFilter
  3
"Acad"
 90
        0
280
     0
281
     0
  0
CLASS
  1
XRECORD
  2
AcDbXrecord
  3
"<Built In>"
 90
        0
280
     0
281
     0
  0
CLASS
  1
SORTENTSTABLE
  2
AcDbSortentsTable
  3
"AutoCAD"
 90
        0
280
     0
281
     0
  0
CLASS
  1
LAYER_INDEX
  2
AcDbLayerIndex
  3
"Acad"
 90
        0
280
     0
281
     0
  0
CLASS
  1
SPATIAL_INDEX
  2
AcDbSpatialIndex
  3
"Acad"
 90
        0
280
     0
281
     0
  0
CLASS
  1
OBJECT_PTR
  2
CAseDLPNTableRecord
  3
"ASE-LPNTableRecord"
 90
        1
280
     0
281
     0
  0
CLASS
  1
LAYOUT
  2
AcDbLayout
  3
"AutoCAD 2000"
 90
        1
280
     0
281
     0
  0
CLASS
  1
PLOTSETTINGS
  2
AcDbPlotSettings
  3
"AutoCAD 2000"
 90
        1
280
     0
281
     0
  0
CLASS
  1
ACDBDICTIONARYWDFLT
  2
AcDbDictionaryWithDefault
  3
"AutoCAD 2000"
 90
        1
280
     0
281
     0
  0
CLASS
  1
ACDBPLACEHOLDER
  2
AcDbPlaceHolder
  3
"AutoCAD 2000"
 90
        1
280
     0
281
     0
  0
CLASS
  1
VBA_PROJECT
  2
AcDbVbaProject
  3
"acadvba"
 90
        1
280
     0
281
     0
  0
CLASS
  1
WIPEOUT
  2
AcDbWipeout
  3
WipeOut|AutoCAD Express Tool|expresstools@autodesk.com
 90
      127
280
     0
281
     1
  0
CLASS
  1
WIPEOUTVARIABLES
  2
AcDbWipeoutVariables
  3
WipeOut|AutoCAD Express Tool|expresstools@autodesk.com
 90
        0
280
     0
281
     0
  0
CLASS
  1
RTEXT
  2
RText
  3
RText|AutoCAD Express Tool|expresstools@autodesk.com
 90
        0
280
     0
281
     1
  0
CLASS
  1
ARCALIGNEDTEXT
  2
AcDbArcAlignedText
  3
ATEXT|AutoCAD Express Tool|expresstools@autodesk.com
 90
        0
280
     0
281
     1
  0
ENDSEC
  0
SECTION
  2
TABLES
  0
TABLE
  2
VPORT
  5
7
100
AcDbSymbolTable
 70
     1
  0
VPORT
  5
15
100
AcDbSymbolTableRecord
100
AcDbViewportTableRecord
  2
*ACTIVE
 70
     0
 10
0.0
 20
0.0
 11
1.0
 21
1.0
 12
210.193559
 22
148.0
 13
0.0
 23
0.0
 14
1.0
 24
1.0
 15
0.0
 25
0.0
 16
0.0
 26
0.0
 36
1.0
 17
0.0
 27
0.0
 37
0.0
 40
282.0
 41
1.722533
 42
50.0
 43
0.0
 44
0.0
 50
0.0
 51
0.0
 71
     0
 72
   100
 73
     1
 74
     1
 75
     0
 76
     0
 77
     0
 78
     0
  0
ENDTAB
  0
TABLE
  2
LTYPE
  5
4
100
AcDbSymbolTable
 70
     9
  0
LTYPE
  5
11
100
AcDbSymbolTableRecord
100
AcDbLinetypeTableRecord
  2
BYBLOCK
 70
    64
  3

 72
    65
 73
     0
 40
0.0
  0
LTYPE
  5
12
100
AcDbSymbolTableRecord
100
AcDbLinetypeTableRecord
  2
BYLAYER
 70
    64
  3

 72
    65
 73
     0
 40
0.0
  0
LTYPE
  5
13
100
AcDbSymbolTableRecord
100
AcDbLinetypeTableRecord
  2
CONTINUOUS
 70
    64
  3
実線
 72
    65
 73
     0
 40
0.0
  0
LTYPE
  5
1D
100
AcDbSymbolTableRecord
100
AcDbLinetypeTableRecord
  2
EXLTYPE1
 70
    64
  3
破線
 72
    65
 73
     2
 40
4.0
 49
3.0
 74
     0
 49
-1.0
 74
     0
  0
LTYPE
  5
1E
100
AcDbSymbolTableRecord
100
AcDbLinetypeTableRecord
  2
EXLTYPE2
 70
    64
  3
点線
 72
    65
 73
     2
 40
2.0
 49
1.0
 74
     0
 49
-1.0
 74
     0
  0
LTYPE
  5
1F
100
AcDbSymbolTableRecord
100
AcDbLinetypeTableRecord
  2
EXLTYPE3
 70
    64
  3
一点鎖線
 72
    65
 73
     4
 40
33.0
 49
30.0
 74
     0
 49
-1.0
 74
     0
 49
1.0
 74
     0
 49
-1.0
 74
     0
  0
LTYPE
  5
20
100
AcDbSymbolTableRecord
100
AcDbLinetypeTableRecord
  2
EXLTYPE4
 70
    64
  3
二点鎖線
 72
    65
 73
     6
 40
20.0
 49
10.0
 74
     0
 49
-2.0
 74
     0
 49
2.0
 74
     0
 49
-2.0
 74
     0
 49
2.0
 74
     0
 49
-2.0
 74
     0
  0
LTYPE
  5
21
100
AcDbSymbolTableRecord
100
AcDbLinetypeTableRecord
  2
EXLTYPE5
 70
    64
  3
三点鎖線
 72
    65
 73
     8
 40
37.0
 49
30.0
 74
     0
 49
-1.0
 74
     0
 49
1.0
 74
     0
 49
-1.0
 74
     0
 49
1.0
 74
     0
 49
-1.0
 74
     0
 49
1.0
 74
     0
 49
-1.0
 74
     0
  0
LTYPE
  5
22
100
AcDbSymbolTableRecord
100
AcDbLinetypeTableRecord
  2
EXLTYPE6
 70
    64
  3
四点鎖線
 72
    65
 73
    10
 40
39.0
 49
30.0
 74
     0
 49
-1.0
 74
     0
 49
1.0
 74
     0
 49
-1.0
 74
     0
 49
1.0
 74
     0
 49
-1.0
 74
     0
 49
1.0
 74
     0
 49
-1.0
 74
     0
 49
1.0
 74
     0
 49
-1.0
 74
     0
  0
ENDTAB
  0
TABLE
  2
LAYER
  5
2
100
AcDbSymbolTable
 70
     8
  0
LAYER
  5
14
100
AcDbSymbolTableRecord
100
AcDbLayerTableRecord
  2
0
 70
     0
 62
     7
  6
CONTINUOUS
  0
LAYER
  5
25
100
AcDbSymbolTableRecord
100
AcDbLayerTableRecord
  2
LAY-1
 70
    64
 62
     7
  6
CONTINUOUS
  0
LAYER
  5
26
100
AcDbSymbolTableRecord
100
AcDbLayerTableRecord
  2
LAY-2
 70
    64
 62
     1
  6
EXLTYPE3
  0
LAYER
  5
27
100
AcDbSymbolTableRecord
100
AcDbLayerTableRecord
  2
LAY-3
 70
    64
 62
     1
  6
CONTINUOUS
  0
LAYER
  5
28
100
AcDbSymbolTableRecord
100
AcDbLayerTableRecord
  2
LAY-4
 70
    64
 62
     3
  6
CONTINUOUS
  0
LAYER
  5
29
100
AcDbSymbolTableRecord
100
AcDbLayerTableRecord
  2
LAY-5
 70
    64
 62
     7
  6
CONTINUOUS
  0
LAYER
  5
2A
100
AcDbSymbolTableRecord
100
AcDbLayerTableRecord
  2
LAY-6
 70
    65
 62
     4
  6
CONTINUOUS
  0
LAYER
  5
2B
100
AcDbSymbolTableRecord
100
AcDbLayerTableRecord
  2
LAY-7
 70
    65
 62
     4
  6
CONTINUOUS
  0
ENDTAB
  0
TABLE
  2
STYLE
  5
3
100
AcDbSymbolTable
 70
     3
  0
STYLE
  5
17
100
AcDbSymbolTableRecord
100
AcDbTextStyleTableRecord
  2
STANDARD
 70
     0
 40
0.0
 41
1.0
 50
0.0
 71
     0
 42
0.0
  3
monotxt
  4
extfont
  0
STYLE
  5
23
100
AcDbSymbolTableRecord
100
AcDbTextStyleTableRecord
  2
EXCADSTD
 70
    64
 40
0.0
 41
1.0
 50
0.0
 71
     0
 42
0.2
  3
monotxt
  4
extfont
  0
STYLE
  5
24
100
AcDbSymbolTableRecord
100
AcDbTextStyleTableRecord
  2
EXCADVERT
 70
    68
 40
0.0
 41
1.0
 50
0.0
 71
     0
 42
0.286885
  3
monotxt
  4
extfont
  0
ENDTAB
  0
TABLE
  2
VIEW
  5
5
100
AcDbSymbolTable
 70
     0
  0
ENDTAB
  0
TABLE
  2
UCS
  5
6
100
AcDbSymbolTable
 70
     0
  0
ENDTAB
  0
TABLE
  2
APPID
  5
8
100
AcDbSymbolTable
 70
     1
  0
APPID
  5
16
100
AcDbSymbolTableRecord
100
AcDbRegAppTableRecord
  2
ACAD
 70
     0
  0
ENDTAB
  0
TABLE
  2
DIMSTYLE
  5
9
100
AcDbSymbolTable
 70
     1
  0
DIMSTYLE
105
18
100
AcDbSymbolTableRecord
100
AcDbDimStyleTableRecord
  2
STANDARD
 70
     0
  3

  4

  5

  6

  7

 40
1.0
 41
0.18
 42
0.0625
 43
0.38
 44
0.18
 45
0.0
 46
0.0
 47
0.0
 48
0.0
 71
     0
 72
     0
 73
     1
 74
     1
 75
     0
 76
     0
 77
     0
 78
     0
140
0.18
141
0.09
142
0.0
143
25.4
144
1.0
145
0.0
146
1.0
147
0.09
170
     0
171
     2
172
     1
173
     0
174
     0
175
     0
176
     0
177
     0
178
     0
270
     2
271
     4
272
     4
273
     2
274
     2
275
     0
280
     0
281
     0
282
     0
283
     1
284
     0
285
     0
286
     0
287
     0
288
     0
340
17
  0
ENDTAB
  0
TABLE
  2
BLOCK_RECORD
  5
1
100
AcDbSymbolTable
 70
    18
  0
BLOCK_RECORD
  5
A
100
AcDbSymbolTableRecord
100
AcDbBlockTableRecord
  2
*MODEL_SPACE
  0
BLOCK_RECORD
  5
B
100
AcDbSymbolTableRecord
100
AcDbBlockTableRecord
  2
*PAPER_SPACE
  0
BLOCK_RECORD
  5
2C
100
AcDbSymbolTableRecord
100
AcDbBlockTableRecord
  2
_EX_NORM
  0
BLOCK_RECORD
  5
2D
100
AcDbSymbolTableRecord
100
AcDbBlockTableRecord
  2
_EX_BNORM
  0
BLOCK_RECORD
  5
2E
100
AcDbSymbolTableRecord
100
AcDbBlockTableRecord
  2
_EX_BCIR
  0
BLOCK_RECORD
  5
2F
100
AcDbSymbolTableRecord
100
AcDbBlockTableRecord
  2
_EX_RCIVIL
  0
BLOCK_RECORD
  5
30
100
AcDbSymbolTableRecord
100
AcDbBlockTableRecord
  2
_EX_SLANT
  0
BLOCK_RECORD
  5
31
100
AcDbSymbolTableRecord
100
AcDbBlockTableRecord
  2
_EX_NONE
  0
BLOCK_RECORD
  5
32
100
AcDbSymbolTableRecord
100
AcDbBlockTableRecord
  2
_EX_CIVIL
  0
BLOCK_RECORD
  5
33
100
AcDbSymbolTableRecord
100
AcDbBlockTableRecord
  2
_EX_WCIR
  0
BLOCK_RECORD
  5
34
100
AcDbSymbolTableRecord
100
AcDbBlockTableRecord
  2
_EX_WCIR2
  0
BLOCK_RECORD
  5
35
100
AcDbSymbolTableRecord
100
AcDbBlockTableRecord
  2
_EX_WNORM
  0
BLOCK_RECORD
  5
36
100
AcDbSymbolTableRecord
100
AcDbBlockTableRecord
  2
_EX_NNORM
  0
BLOCK_RECORD
  5
37
100
AcDbSymbolTableRecord
100
AcDbBlockTableRecord
  2
_EX_BBOX
  0
BLOCK_RECORD
  5
38
100
AcDbSymbolTableRecord
100
AcDbBlockTableRecord
  2
_EX_WBOX
  0
BLOCK_RECORD
  5
39
100
AcDbSymbolTableRecord
100
AcDbBlockTableRecord
  2
_EX_INTEGRAL
  0
BLOCK_RECORD
  5
3A
100
AcDbSymbolTableRecord
100
AcDbBlockTableRecord
  2
SYM-1
  0
BLOCK_RECORD
  5
3B
100
AcDbSymbolTableRecord
100
AcDbBlockTableRecord
  2
SYM-2
  0
BLOCK_RECORD
  5
3C
100
AcDbSymbolTableRecord
100
AcDbBlockTableRecord
  2
SYM-3
  0
BLOCK_RECORD
  5
3D
100
AcDbSymbolTableRecord
100
AcDbBlockTableRecord
  2
SYM-4
  0
ENDTAB
  0
ENDSEC
  0
SECTION
  2
BLOCKS
  0
BLOCK
  5
D
100
AcDbEntity
  8
0
100
AcDbBlockBegin
  2
*MODEL_SPACE
 70
     0
 10
0.0
 20
0.0
 30
0.0
  3
*MODEL_SPACE
  1

  0
ENDBLK
  5
E
100
AcDbEntity
  8
0
100
AcDbBlockEnd
  0
BLOCK
  5
F
100
AcDbEntity
 67
     1
  8
0
100
AcDbBlockBegin
  2
*PAPER_SPACE
 70
     0
 10
0.0
 20
0.0
 30
0.0
  3
*PAPER_SPACE
  1

  0
ENDBLK
  5
10
100
AcDbEntity
 67
     1
  8
0
100
AcDbBlockEnd
  0
BLOCK
  5
3E
100
AcDbEntity
  8
0
100
AcDbBlockBegin
  2
_EX_NORM
 70
     0
 10
0.0
 20
0.0
 30
0.0
  3
_EX_NORM
  1

  0
LINE
  5
3F
100
AcDbEntity
  8
0
  6
CONTINUOUS
 62
     0
100
AcDbLine
 10
0.0
 20
0.0
 30
0.0
 11
-1.0
 21
0.0
 31
0.0
  0
LINE
  5
40
100
AcDbEntity
  8
0
  6
CONTINUOUS
 62
     0
100
AcDbLine
 10
0.0
 20
0.0
 30
0.0
 11
-1.0
 21
0.166667
 31
0.0
  0
LINE
  5
41
100
AcDbEntity
  8
0
  6
CONTINUOUS
 62
     0
100
AcDbLine
 10
0.0
 20
0.0
 30
0.0
 11
-1.0
 21
-0.166667
 31
0.0
  0
ENDBLK
  5
42
100
AcDbEntity
  8
0
100
AcDbBlockEnd
  0
BLOCK
  5
43
100
AcDbEntity
  8
0
100
AcDbBlockBegin
  2
_EX_BNORM
 70
     0
 10
0.0
 20
0.0
 30
0.0
  3
_EX_BNORM
  1

  0
LINE
  5
44
100
AcDbEntity
  8
0
  6
CONTINUOUS
 62
     0
100
AcDbLine
 10
0.0
 20
0.0
 30
0.0
 11
-1.0
 21
0.0
 31
0.0
  0
LINE
  5
45
100
AcDbEntity
  8
0
  6
CONTINUOUS
 62
     0
100
AcDbLine
 10
0.0
 20
0.0
 30
0.0
 11
-1.0
 21
0.166667
 31
0.0
  0
LINE
  5
46
100
AcDbEntity
  8
0
  6
CONTINUOUS
 62
     0
100
AcDbLine
 10
0.0
 20
0.0
 30
0.0
 11
-1.0
 21
-0.166667
 31
0.0
  0
LINE
  5
47
100
AcDbEntity
  8
0
  6
CONTINUOUS
 62
     0
100
AcDbLine
 10
0.0
 20
0.0
 30
0.0
 11
-1.0
 21
0.083333
 31
0.0
  0
LINE
  5
48
100
AcDbEntity
  8
0
  6
CONTINUOUS
 62
     0
100
AcDbLine
 10
0.0
 20
0.0
 30
0.0
 11
-1.0
 21
-0.083333
 31
0.0
  0
LINE
  5
49
100
AcDbEntity
  8
0
  6
CONTINUOUS
 62
     0
100
AcDbLine
 10
-1.0
 20
0.166667
 30
0.0
 11
-1.0
 21
-0.166667
 31
0.0
  0
ENDBLK
  5
4A
100
AcDbEntity
  8
0
100
AcDbBlockEnd
  0
BLOCK
  5
4B
100
AcDbEntity
  8
0
100
AcDbBlockBegin
  2
_EX_BCIR
 70
     0
 10
0.0
 20
0.0
 30
0.0
  3
_EX_BCIR
  1

  0
LINE
  5
4C
100
AcDbEntity
  8
0
  6
CONTINUOUS
 62
     0
100
AcDbLine
 10
0.0
 20
0.0
 30
0.0
 11
-1.0
 21
0.0
 31
0.0
  0
CIRCLE
  5
4D
100
AcDbEntity
  8
0
  6
CONTINUOUS
 62
     0
100
AcDbCircle
 10
0.0
 20
0.0
 30
0.0
 40
0.5
  0
CIRCLE
  5
4E
100
AcDbEntity
  8
0
  6
CONTINUOUS
 62
     0
100
AcDbCircle
 10
0.0
 20
0.0
 30
0.0
 40
0.25
  0
ENDBLK
  5
4F
100
AcDbEntity
  8
0
100
AcDbBlockEnd
  0
BLOCK
  5
50
100
AcDbEntity
  8
0
100
AcDbBlockBegin
  2
_EX_RCIVIL
 70
     0
 10
0.0
 20
0.0
 30
0.0
  3
_EX_RCIVIL
  1

  0
LINE
  5
51
100
AcDbEntity
  8
0
  6
CONTINUOUS
 62
     0
100
AcDbLine
 10
0.0
 20
0.0
 30
0.0
 11
-1.0
 21
0.0
 31
0.0
  0
LINE
  5
52
100
AcDbEntity
  8
0
  6
CONTINUOUS
 62
     0
100
AcDbLine
 10
-1.0
 20
-0.25
 30
0.0
 11
0.0
 21
-0.25
 31
0.0
  0
LINE
  5
53
100
AcDbEntity
  8
0
  6
CONTINUOUS
 62
     0
100
AcDbLine
 10
-1.0
 20
-0.125
 30
0.0
 11
0.0
 21
-0.125
 31
0.0
  0
ENDBLK
  5
54
100
AcDbEntity
  8
0
100
AcDbBlockEnd
  0
BLOCK
  5
55
100
AcDbEntity
  8
0
100
AcDbBlockBegin
  2
_EX_SLANT
 70
     0
 10
0.0
 20
0.0
 30
0.0
  3
_EX_SLANT
  1

  0
LINE
  5
56
100
AcDbEntity
  8
0
  6
CONTINUOUS
 62
     0
100
AcDbLine
 10
0.0
 20
0.0
 30
0.0
 11
-1.0
 21
0.0
 31
0.0
  0
LINE
  5
57
100
AcDbEntity
  8
0
  6
CONTINUOUS
 62
     0
100
AcDbLine
 10
0.707107
 20
0.707107
 30
0.0
 11
-0.707107
 21
-0.707107
 31
0.0
  0
ENDBLK
  5
58
100
AcDbEntity
  8
0
100
AcDbBlockEnd
  0
BLOCK
  5
59
100
AcDbEntity
  8
0
100
AcDbBlockBegin
  2
_EX_NONE
 70
     0
 10
0.0
 20
0.0
 30
0.0
  3
_EX_NONE
  1

  0
LINE
  5
5A
100
AcDbEntity
  8
0
  6
CONTINUOUS
 62
     0
100
AcDbLine
 10
0.0
 20
0.0
 30
0.0
 11
-1.0
 21
0.0
 31
0.0
  0
ENDBLK
  5
5B
100
AcDbEntity
  8
0
100
AcDbBlockEnd
  0
BLOCK
  5
5C
100
AcDbEntity
  8
0
100
AcDbBlockBegin
  2
_EX_CIVIL
 70
     0
 10
0.0
 20
0.0
 30
0.0
  3
_EX_CIVIL
  1

  0
LINE
  5
5D
100
AcDbEntity
  8
0
  6
CONTINUOUS
 62
     0
100
AcDbLine
 10
0.0
 20
0.0
 30
0.0
 11
-1.0
 21
0.0
 31
0.0
  0
LINE
  5
5E
100
AcDbEntity
  8
0
  6
CONTINUOUS
 62
     0
100
AcDbLine
 10
-1.0
 20
0.25
 30
0.0
 11
0.0
 21
0.25
 31
0.0
  0
LINE
  5
5F
100
AcDbEntity
  8
0
  6
CONTINUOUS
 62
     0
100
AcDbLine
 10
-1.0
 20
0.125
 30
0.0
 11
0.0
 21
0.125
 31
0.0
  0
ENDBLK
  5
60
100
AcDbEntity
  8
0
100
AcDbBlockEnd
  0
BLOCK
  5
61
100
AcDbEntity
  8
0
100
AcDbBlockBegin
  2
_EX_WCIR
 70
     0
 10
0.0
 20
0.0
 30
0.0
  3
_EX_WCIR
  1

  0
LINE
  5
62
100
AcDbEntity
  8
0
  6
CONTINUOUS
 62
     0
100
AcDbLine
 10
0.0
 20
0.0
 30
0.0
 11
-1.0
 21
0.0
 31
0.0
  0
CIRCLE
  5
63
100
AcDbEntity
  8
0
  6
CONTINUOUS
 62
     0
100
AcDbCircle
 10
0.0
 20
0.0
 30
0.0
 40
0.5
  0
ENDBLK
  5
64
100
AcDbEntity
  8
0
100
AcDbBlockEnd
  0
BLOCK
  5
65
100
AcDbEntity
  8
0
100
AcDbBlockBegin
  2
_EX_WCIR2
 70
     0
 10
0.0
 20
0.0
 30
0.0
  3
_EX_WCIR2
  1

  0
LINE
  5
66
100
AcDbEntity
  8
0
  6
CONTINUOUS
 62
     0
100
AcDbLine
 10
-0.5
 20
0.0
 30
0.0
 11
-1.0
 21
0.0
 31
0.0
  0
CIRCLE
  5
67
100
AcDbEntity
  8
0
  6
CONTINUOUS
 62
     0
100
AcDbCircle
 10
0.0
 20
0.0
 30
0.0
 40
0.5
  0
ENDBLK
  5
68
100
AcDbEntity
  8
0
100
AcDbBlockEnd
  0
BLOCK
  5
69
100
AcDbEntity
  8
0
100
AcDbBlockBegin
  2
_EX_WNORM
 70
     0
 10
0.0
 20
0.0
 30
0.0
  3
_EX_WNORM
  1

  0
LINE
  5
6A
100
AcDbEntity
  8
0
  6
CONTINUOUS
 62
     0
100
AcDbLine
 10
-1.0
 20
0.0
 30
0.0
 11
-1.0
 21
0.0
 31
0.0
  0
LINE
  5
6B
100
AcDbEntity
  8
0
  6
CONTINUOUS
 62
     0
100
AcDbLine
 10
0.0
 20
0.0
 30
0.0
 11
-1.0
 21
0.166667
 31
0.0
  0
LINE
  5
6C
100
AcDbEntity
  8
0
  6
CONTINUOUS
 62
     0
100
AcDbLine
 10
0.0
 20
0.0
 30
0.0
 11
-1.0
 21
-0.166667
 31
0.0
  0
LINE
  5
6D
100
AcDbEntity
  8
0
  6
CONTINUOUS
 62
     0
100
AcDbLine
 10
-1.0
 20
0.166667
 30
0.0
 11
-1.0
 21
-0.166667
 31
0.0
  0
ENDBLK
  5
6E
100
AcDbEntity
  8
0
100
AcDbBlockEnd
  0
BLOCK
  5
6F
100
AcDbEntity
  8
0
100
AcDbBlockBegin
  2
_EX_NNORM
 70
     0
 10
0.0
 20
0.0
 30
0.0
  3
_EX_NNORM
  1

  0
LINE
  5
70
100
AcDbEntity
  8
0
  6
CONTINUOUS
 62
     0
100
AcDbLine
 10
0.0
 20
0.0
 30
0.0
 11
-1.0
 21
0.0
 31
0.0
  0
LINE
  5
71
100
AcDbEntity
  8
0
  6
CONTINUOUS
 62
     0
100
AcDbLine
 10
0.0
 20
0.0
 30
0.0
 11
-1.0
 21
0.166667
 31
0.0
  0
LINE
  5
72
100
AcDbEntity
  8
0
  6
CONTINUOUS
 62
     0
100
AcDbLine
 10
0.0
 20
0.0
 30
0.0
 11
-1.0
 21
-0.166667
 31
0.0
  0
LINE
  5
73
100
AcDbEntity
  8
0
  6
CONTINUOUS
 62
     0
100
AcDbLine
 10
-1.0
 20
0.166667
 30
0.0
 11
-1.0
 21
-0.166667
 31
0.0
  0
ENDBLK
  5
74
100
AcDbEntity
  8
0
100
AcDbBlockEnd
  0
BLOCK
  5
75
100
AcDbEntity
  8
0
100
AcDbBlockBegin
  2
_EX_BBOX
 70
     0
 10
0.0
 20
0.0
 30
0.0
  3
_EX_BBOX
  1

  0
LINE
  5
76
100
AcDbEntity
  8
0
  6
CONTINUOUS
 62
     0
100
AcDbLine
 10
0.0
 20
0.0
 30
0.0
 11
-1.0
 21
0.0
 31
0.0
  0
LINE
  5
77
100
AcDbEntity
  8
0
  6
CONTINUOUS
 62
     0
100
AcDbLine
 10
-0.5
 20
0.5
 30
0.0
 11
0.5
 21
0.5
 31
0.0
  0
LINE
  5
78
100
AcDbEntity
  8
0
  6
CONTINUOUS
 62
     0
100
AcDbLine
 10
0.5
 20
0.5
 30
0.0
 11
0.5
 21
-0.5
 31
0.0
  0
LINE
  5
79
100
AcDbEntity
  8
0
  6
CONTINUOUS
 62
     0
100
AcDbLine
 10
0.5
 20
-0.5
 30
0.0
 11
-0.5
 21
-0.5
 31
0.0
  0
LINE
  5
7A
100
AcDbEntity
  8
0
  6
CONTINUOUS
 62
     0
100
AcDbLine
 10
-0.5
 20
-0.5
 30
0.0
 11
-0.5
 21
0.5
 31
0.0
  0
LINE
  5
7B
100
AcDbEntity
  8
0
  6
CONTINUOUS
 62
     0
100
AcDbLine
 10
-0.25
 20
0.25
 30
0.0
 11
0.25
 21
0.25
 31
0.0
  0
LINE
  5
7C
100
AcDbEntity
  8
0
  6
CONTINUOUS
 62
     0
100
AcDbLine
 10
0.25
 20
0.25
 30
0.0
 11
0.25
 21
-0.25
 31
0.0
  0
LINE
  5
7D
100
AcDbEntity
  8
0
  6
CONTINUOUS
 62
     0
100
AcDbLine
 10
0.25
 20
-0.25
 30
0.0
 11
-0.25
 21
-0.25
 31
0.0
  0
LINE
  5
7E
100
AcDbEntity
  8
0
  6
CONTINUOUS
 62
     0
100
AcDbLine
 10
-0.25
 20
-0.25
 30
0.0
 11
-0.25
 21
0.25
 31
0.0
  0
ENDBLK
  5
7F
100
AcDbEntity
  8
0
100
AcDbBlockEnd
  0
BLOCK
  5
80
100
AcDbEntity
  8
0
100
AcDbBlockBegin
  2
_EX_WBOX
 70
     0
 10
0.0
 20
0.0
 30
0.0
  3
_EX_WBOX
  1

  0
LINE
  5
81
100
AcDbEntity
  8
0
  6
CONTINUOUS
 62
     0
100
AcDbLine
 10
-0.5
 20
0.0
 30
0.0
 11
-1.0
 21
0.0
 31
0.0
  0
LINE
  5
82
100
AcDbEntity
  8
0
  6
CONTINUOUS
 62
     0
100
AcDbLine
 10
-0.5
 20
0.5
 30
0.0
 11
0.5
 21
0.5
 31
0.0
  0
LINE
  5
83
100
AcDbEntity
  8
0
  6
CONTINUOUS
 62
     0
100
AcDbLine
 10
0.5
 20
0.5
 30
0.0
 11
0.5
 21
-0.5
 31
0.0
  0
LINE
  5
84
100
AcDbEntity
  8
0
  6
CONTINUOUS
 62
     0
100
AcDbLine
 10
0.5
 20
-0.5
 30
0.0
 11
-0.5
 21
-0.5
 31
0.0
  0
LINE
  5
85
100
AcDbEntity
  8
0
  6
CONTINUOUS
 62
     0
100
AcDbLine
 10
-0.5
 20
-0.5
 30
0.0
 11
-0.5
 21
0.5
 31
0.0
  0
ENDBLK
  5
86
100
AcDbEntity
  8
0
100
AcDbBlockEnd
  0
BLOCK
  5
87
100
AcDbEntity
  8
0
100
AcDbBlockBegin
  2
_EX_INTEGRAL
 70
     0
 10
0.0
 20
0.0
 30
0.0
  3
_EX_INTEGRAL
  1

  0
LINE
  5
88
100
AcDbEntity
  8
0
  6
CONTINUOUS
 62
     0
100
AcDbLine
 10
0.0
 20
0.0
 30
0.0
 11
-1.0
 21
0.0
 31
0.0
  0
ARC
  5
89
100
AcDbEntity
  8
0
  6
CONTINUOUS
 62
     0
100
AcDbCircle
 10
0.542115
 20
0.164992
 30
0.0
 40
0.56667
100
AcDbArc
 50
73.07249
 51
196.927513
  0
ARC
  5
8A
100
AcDbEntity
  8
0
  6
CONTINUOUS
 62
     0
100
AcDbCircle
 10
-0.542115
 20
-0.164992
 30
0.0
 40
0.56667
100
AcDbArc
 50
253.072487
 51
16.927513
  0
ENDBLK
  5
8B
100
AcDbEntity
  8
0
100
AcDbBlockEnd
  0
BLOCK
  5
8C
100
AcDbEntity
  8
0
100
AcDbBlockBegin
  2
SYM-1
 70
     0
 10
0.0
 20
0.0
 30
0.0
  3
SYM-1
  1

  0
CIRCLE
  5
8D
100
AcDbEntity
  8
0
  6
CONTINUOUS
 62
     1
100
AcDbCircle
 10
0.0
 20
0.0
 30
0.0
 40
4.244997
  0
TEXT
  5
8E
100
AcDbEntity
  8
0
  6
CONTINUOUS
 62
     3
100
AcDbText
 10
-2.1
 20
0.2
 30
0.0
 40
3.2
  1
山
 41
1.3125
  7
EXCADSTD
 72
     5
 11
1.9
 21
0.2
 31
0.0
100
AcDbText
  0
TEXT
  5
8F
100
AcDbEntity
  8
0
  6
CONTINUOUS
 62
     3
100
AcDbText
 10
-2.1
 20
-3.0
 30
0.0
 40
3.2
  1
田
 41
1.3125
  7
EXCADSTD
 72
     5
 11
1.9
 21
-3.0
 31
0.0
100
AcDbText
  0
ENDBLK
  5
90
100
AcDbEntity
  8
0
100
AcDbBlockEnd
  0
BLOCK
  5
91
100
AcDbEntity
  8
0
100
AcDbBlockBegin
  2
SYM-2
 70
     0
 10
0.0
 20
0.0
 30
0.0
  3
SYM-2
  1

  0
CIRCLE
  5
92
100
AcDbEntity
  8
0
  6
CONTINUOUS
 62
     1
100
AcDbCircle
 10
0.0
 20
0.0
 30
0.0
 40
4.244997
  0
TEXT
  5
93
100
AcDbEntity
  8
0
  6
CONTINUOUS
 62
     3
100
AcDbText
 10
-2.1
 20
0.2
 30
0.0
 40
3.2
  1
上
 41
1.3125
  7
EXCADSTD
 72
     5
 11
1.9
 21
0.2
 31
0.0
100
AcDbText
  0
TEXT
  5
94
100
AcDbEntity
  8
0
  6
CONTINUOUS
 62
     3
100
AcDbText
 10
-2.1
 20
-3.0
 30
0.0
 40
3.2
  1
原
 41
1.3125
  7
EXCADSTD
 72
     5
 11
1.9
 21
-3.0
 31
0.0
100
AcDbText
  0
ENDBLK
  5
95
100
AcDbEntity
  8
0
100
AcDbBlockEnd
  0
BLOCK
  5
96
100
AcDbEntity
  8
0
100
AcDbBlockBegin
  2
SYM-3
 70
     0
 10
0.0
 20
0.0
 30
0.0
  3
SYM-3
  1

  0
CIRCLE
  5
97
100
AcDbEntity
  8
0
  6
CONTINUOUS
 62
     1
100
AcDbCircle
 10
0.0
 20
0.0
 30
0.0
 40
4.244997
  0
TEXT
  5
98
100
AcDbEntity
  8
0
  6
CONTINUOUS
 62
     3
100
AcDbText
 10
-2.1
 20
0.2
 30
0.0
 40
3.2
  1
岩
 41
1.3125
  7
EXCADSTD
 72
     5
 11
1.9
 21
0.2
 31
0.0
100
AcDbText
  0
TEXT
  5
99
100
AcDbEntity
  8
0
  6
CONTINUOUS
 62
     3
100
AcDbText
 10
-2.1
 20
-3.0
 30
0.0
 40
3.2
  1
本
 41
1.3125
  7
EXCADSTD
 72
     5
 11
1.9
 21
-3.0
 31
0.0
100
AcDbText
  0
ENDBLK
  5
9A
100
AcDbEntity
  8
0
100
AcDbBlockEnd
  0
BLOCK
  5
9B
100
AcDbEntity
  8
0
100
AcDbBlockBegin
  2
SYM-4
 70
     0
 10
0.0
 20
0.0
 30
0.0
  3
SYM-4
  1

  0
CIRCLE
  5
9C
100
AcDbEntity
  8
0
  6
CONTINUOUS
 62
     1
100
AcDbCircle
 10
0.0
 20
0.0
 30
0.0
 40
4.244997
  0
TEXT
  5
9D
100
AcDbEntity
  8
0
  6
CONTINUOUS
 62
     3
100
AcDbText
 10
-2.1
 20
0.2
 30
0.0
 40
3.2
  1
中
 41
1.3125
  7
EXCADSTD
 72
     5
 11
1.9
 21
0.2
 31
0.0
100
AcDbText
  0
TEXT
  5
9E
100
AcDbEntity
  8
0
  6
CONTINUOUS
 62
     3
100
AcDbText
 10
-2.1
 20
-3.0
 30
0.0
 40
3.2
  1
東
 41
1.3125
  7
EXCADSTD
 72
     5
 11
1.9
 21
-3.0
 31
0.0
100
AcDbText
  0
ENDBLK
  5
9F
100
AcDbEntity
  8
0
100
AcDbBlockEnd
  0
ENDSEC
  0
SECTION
  2
ENTITIES
  0
LINE
  5
A0
100
AcDbEntity
  8
LAY-1
  6
CONTINUOUS
 62
     2
100
AcDbLine
 10
100.42887
 20
255.673389
 30
0.0
 11
100.725759
 21
238.664663
 31
0.0
  0
LINE
  5
A1
100
AcDbEntity
  8
LAY-1
  6
CONTINUOUS
 62
     2
100
AcDbLine
 10
33.734334
 20
240.048389
 30
0.0
 11
33.734334
 21
255.673389
 31
0.0
  0
LINE
  5
A2
100
AcDbEntity
  8
LAY-1
  6
CONTINUOUS
 62
     2
100
AcDbLine
 10
33.484334
 20
247.298389
 30
0.0
 11
33.484334
 21
255.673389
 31
0.0
  0
LINE
  5
A3
100
AcDbEntity
  8
LAY-1
  6
CONTINUOUS
 62
     2
100
AcDbLine
 10
99.657885
 20
247.961823
 30
0.0
 11
96.511837
 21
248.804804
 31
0.0
  0
LINE
  5
A4
100
AcDbEntity
  8
LAY-1
  6
CONTINUOUS
 62
     2
100
AcDbLine
 10
33.734334
 20
247.298389
 30
0.0
 11
33.484334
 21
247.298389
 31
0.0
  0
ARC
  5
A5
100
AcDbEntity
  8
LAY-1
  6
CONTINUOUS
 62
     2
100
AcDbCircle
 10
101.225682
 20
238.673389
 30
0.0
 40
0.5
100
AcDbArc
 50
181.0
 51
270.0
  0
ARC
  5
A6
100
AcDbEntity
  8
LAY-1
  6
CONTINUOUS
 62
     2
100
AcDbCircle
 10
36.992985
 20
240.548389
 30
0.0
 40
0.5
100
AcDbArc
 50
270.0
 51
359.0
  0
LINE
  5
A7
100
AcDbEntity
  8
LAY-1
  6
CONTINUOUS
 62
     2
100
AcDbLine
 10
37.492909
 20
240.539663
 30
0.0
 11
37.757069
 21
255.673389
 31
0.0
  0
LINE
  5
A8
100
AcDbEntity
  8
LAY-1
  6
EXLTYPE4
 62
     1
100
AcDbLine
 10
33.734334
 20
246.798389
 30
0.0
 11
37.484334
 21
246.798389
 31
0.0
  0
LINE
  5
A9
100
AcDbEntity
  8
LAY-1
  6
CONTINUOUS
 62
     2
100
AcDbLine
 10
101.225682
 20
238.173389
 30
0.0
 11
104.734334
 21
238.173389
 31
0.0
  0
LINE
  5
AA
100
AcDbEntity
  8
LAY-1
  6
CONTINUOUS
 62
     2
100
AcDbLine
 10
40.939226
 20
255.673389
 30
0.0
 11
40.939226
 21
250.673389
 31
0.0
  0
ARC
  5
AB
100
AcDbEntity
  8
LAY-1
  6
CONTINUOUS
 62
     2
100
AcDbCircle
 10
99.334361
 20
246.754415
 30
0.0
 40
1.25
100
AcDbArc
 50
1.0
 51
75.0
  0
ARC
  5
AC
100
AcDbEntity
  8
LAY-1
  6
CONTINUOUS
 62
     2
100
AcDbCircle
 10
40.867266
 20
247.241653
 30
0.0
 40
2.5
100
AcDbArc
 50
72.072371
 51
105.0
  0
LINE
  5
AD
100
AcDbEntity
  8
LAY-1
  6
CONTINUOUS
 62
     2
100
AcDbLine
 10
104.734334
 20
238.173389
 30
0.0
 11
104.734334
 21
255.673389
 31
0.0
  0
LINE
  5
AE
100
AcDbEntity
  8
LAY-1
  6
CONTINUOUS
 62
     2
100
AcDbLine
 10
38.549822
 20
249.208886
 30
0.0
 11
40.220218
 21
249.656467
 31
0.0
  0
ARC
  5
AF
100
AcDbEntity
  8
LAY-1
  6
CONTINUOUS
 62
     2
100
AcDbCircle
 10
38.873346
 20
248.001479
 30
0.0
 40
1.25
100
AcDbArc
 50
105.0
 51
179.0
  0
LINE
  5
B0
100
AcDbEntity
  8
LAY-1
  6
CONTINUOUS
 62
     2
100
AcDbLine
 10
111.609334
 20
256.923389
 30
0.0
 11
111.609334
 21
254.423389
 31
0.0
  0
LINE
  5
B1
100
AcDbEntity
  8
LAY-1
  6
CONTINUOUS
 62
     2
100
AcDbLine
 10
114.109334
 20
256.923389
 30
0.0
 11
111.609334
 21
256.923389
 31
0.0
  0
LINE
  5
B2
100
AcDbEntity
  8
LAY-1
  6
CONTINUOUS
 62
     2
100
AcDbLine
 10
114.109334
 20
253.673389
 30
0.0
 11
116.609334
 21
255.673389
 31
0.0
  0
LINE
  5
B3
100
AcDbEntity
  8
LAY-1
  6
CONTINUOUS
 62
     2
100
AcDbLine
 10
116.609334
 20
255.673389
 30
0.0
 11
114.109334
 21
257.673389
 31
0.0
  0
LINE
  5
B4
100
AcDbEntity
  8
LAY-1
  6
CONTINUOUS
 62
     2
100
AcDbLine
 10
114.109334
 20
257.673389
 30
0.0
 11
114.109334
 21
256.923389
 31
0.0
  0
LINE
  5
B5
100
AcDbEntity
  8
LAY-1
  6
CONTINUOUS
 62
     2
100
AcDbLine
 10
111.609334
 20
254.423389
 30
0.0
 11
114.109334
 21
254.423389
 31
0.0
  0
LINE
  5
B6
100
AcDbEntity
  8
LAY-1
  6
CONTINUOUS
 62
     2
100
AcDbLine
 10
114.109334
 20
254.423389
 30
0.0
 11
114.109334
 21
253.673389
 31
0.0
  0
LINE
  5
B7
100
AcDbEntity
  8
LAY-1
  6
CONTINUOUS
 62
     2
100
AcDbLine
 10
21.609334
 20
256.923389
 30
0.0
 11
21.609334
 21
254.423389
 31
0.0
  0
LINE
  5
B8
100
AcDbEntity
  8
LAY-1
  6
CONTINUOUS
 62
     2
100
AcDbLine
 10
24.109334
 20
256.923389
 30
0.0
 11
21.609334
 21
256.923389
 31
0.0
  0
LINE
  5
B9
100
AcDbEntity
  8
LAY-1
  6
CONTINUOUS
 62
     2
100
AcDbLine
 10
24.109334
 20
253.673389
 30
0.0
 11
26.609334
 21
255.673389
 31
0.0
  0
LINE
  5
BA
100
AcDbEntity
  8
LAY-1
  6
CONTINUOUS
 62
     2
100
AcDbLine
 10
26.609334
 20
255.673389
 30
0.0
 11
24.109334
 21
257.673389
 31
0.0
  0
LINE
  5
BB
100
AcDbEntity
  8
LAY-1
  6
CONTINUOUS
 62
     2
100
AcDbLine
 10
24.109334
 20
257.673389
 30
0.0
 11
24.109334
 21
256.923389
 31
0.0
  0
LINE
  5
BC
100
AcDbEntity
  8
LAY-1
  6
CONTINUOUS
 62
     2
100
AcDbLine
 10
21.609334
 20
254.423389
 30
0.0
 11
24.109334
 21
254.423389
 31
0.0
  0
LINE
  5
BD
100
AcDbEntity
  8
LAY-1
  6
CONTINUOUS
 62
     2
100
AcDbLine
 10
24.109334
 20
254.423389
 30
0.0
 11
24.109334
 21
253.673389
 31
0.0
  0
LINE
  5
BE
100
AcDbEntity
  8
LAY-1
  6
CONTINUOUS
 62
     2
100
AcDbLine
 10
33.734334
 20
240.048389
 30
0.0
 11
36.992985
 21
240.048389
 31
0.0
  0
LINE
  5
BF
100
AcDbEntity
  8
LAY-1
  6
CONTINUOUS
 62
     2
100
AcDbLine
 10
33.734334
 20
264.048389
 30
0.0
 11
33.484334
 21
264.048389
 31
0.0
  0
LINE
  5
C0
100
AcDbEntity
  8
LAY-1
  6
CONTINUOUS
 62
     2
100
AcDbLine
 10
33.734334
 20
271.298389
 30
0.0
 11
33.734334
 21
255.673389
 31
0.0
  0
LINE
  5
C1
100
AcDbEntity
  8
LAY-1
  6
CONTINUOUS
 62
     2
100
AcDbLine
 10
33.484334
 20
264.048389
 30
0.0
 11
33.484334
 21
255.673389
 31
0.0
  0
LINE
  5
C2
100
AcDbEntity
  8
LAY-1
  6
CONTINUOUS
 62
     2
100
AcDbLine
 10
99.657885
 20
263.384955
 30
0.0
 11
96.511837
 21
262.541975
 31
0.0
  0
LINE
  5
C3
100
AcDbEntity
  8
LAY-1
  6
CONTINUOUS
 62
     2
100
AcDbLine
 10
100.42887
 20
255.673389
 30
0.0
 11
100.725759
 21
272.682115
 31
0.0
  0
ARC
  5
C4
100
AcDbEntity
  8
LAY-1
  6
CONTINUOUS
 62
     2
100
AcDbCircle
 10
101.225682
 20
272.673389
 30
0.0
 40
0.5
100
AcDbArc
 50
90.0
 51
179.0
  0
ARC
  5
C5
100
AcDbEntity
  8
LAY-1
  6
CONTINUOUS
 62
     2
100
AcDbCircle
 10
36.992985
 20
270.798389
 30
0.0
 40
0.5
100
AcDbArc
 50
1.0
 51
90.0
  0
LINE
  5
C6
100
AcDbEntity
  8
LAY-1
  6
CONTINUOUS
 62
     2
100
AcDbLine
 10
37.492909
 20
270.807115
 30
0.0
 11
37.757069
 21
255.673389
 31
0.0
  0
LINE
  5
C7
100
AcDbEntity
  8
LAY-1
  6
CONTINUOUS
 62
     2
100
AcDbLine
 10
101.225682
 20
273.173389
 30
0.0
 11
104.734334
 21
273.173389
 31
0.0
  0
LINE
  5
C8
100
AcDbEntity
  8
LAY-1
  6
CONTINUOUS
 62
     2
100
AcDbLine
 10
40.939226
 20
255.673389
 30
0.0
 11
40.939226
 21
260.673389
 31
0.0
  0
ARC
  5
C9
100
AcDbEntity
  8
LAY-1
  6
CONTINUOUS
 62
     2
100
AcDbCircle
 10
99.334361
 20
264.592363
 30
0.0
 40
1.25
100
AcDbArc
 50
285.0
 51
359.0
  0
ARC
  5
CA
100
AcDbEntity
  8
LAY-1
  6
CONTINUOUS
 62
     2
100
AcDbCircle
 10
40.867266
 20
264.105126
 30
0.0
 40
2.5
100
AcDbArc
 50
255.0
 51
287.927629
  0
LINE
  5
CB
100
AcDbEntity
  8
LAY-1
  6
CONTINUOUS
 62
     2
100
AcDbLine
 10
104.734334
 20
273.173389
 30
0.0
 11
104.734334
 21
255.673389
 31
0.0
  0
LINE
  5
CC
100
AcDbEntity
  8
LAY-1
  6
CONTINUOUS
 62
     2
100
AcDbLine
 10
38.549822
 20
262.137892
 30
0.0
 11
40.220218
 21
261.690311
 31
0.0
  0
ARC
  5
CD
100
AcDbEntity
  8
LAY-1
  6
CONTINUOUS
 62
     2
100
AcDbCircle
 10
38.873346
 20
263.3453
 30
0.0
 40
1.25
100
AcDbArc
 50
181.0
 51
255.0
  0
LINE
  5
CE
100
AcDbEntity
  8
LAY-1
  6
CONTINUOUS
 62
     2
100
AcDbLine
 10
33.734334
 20
271.298389
 30
0.0
 11
36.992985
 21
271.298389
 31
0.0
  0
LINE
  5
CF
100
AcDbEntity
  8
LAY-1
  6
CONTINUOUS
 62
     7
100
AcDbLine
 10
251.35
 20
102.983975
 30
0.0
 11
251.35
 21
32.983975
 31
0.0
  0
LINE
  5
D0
100
AcDbEntity
  8
LAY-1
  6
CONTINUOUS
 62
     7
100
AcDbLine
 10
167.595886
 20
102.983975
 30
0.0
 11
167.596278
 21
101.133975
 31
0.0
  0
LINE
  5
D1
100
AcDbEntity
  8
LAY-1
  6
CONTINUOUS
 62
     7
100
AcDbLine
 10
196.543376
 20
62.483975
 30
0.0
 11
198.665734
 21
58.807943
 31
0.0
  0
ARC
  5
D2
100
AcDbEntity
  8
LAY-1
  6
CONTINUOUS
 62
     7
100
AcDbCircle
 10
116.395305
 20
37.733975
 30
0.0
 40
1.0
100
AcDbArc
 50
270.0
 51
0.0
  0
ARC
  5
D3
100
AcDbEntity
  8
LAY-1
  6
CONTINUOUS
 62
     7
100
AcDbCircle
 10
116.395305
 20
98.233975
 30
0.0
 40
1.0
100
AcDbArc
 50
0.0
 51
90.0
  0
ARC
  5
D4
100
AcDbEntity
  8
LAY-1
  6
EXLTYPE4
 62
     1
100
AcDbCircle
 10
180.098284
 20
-89.742908
 30
0.0
 40
178.5
100
AcDbArc
 50
96.257202
 51
102.590631
  0
LINE
  5
D5
100
AcDbEntity
  8
LAY-1
  6
EXLTYPE4
 62
     1
100
AcDbLine
 10
109.35
 20
40.733975
 30
0.0
 11
117.395305
 21
40.733975
 31
0.0
  0
LINE
  5
D6
100
AcDbEntity
  8
LAY-1
  6
EXLTYPE4
 62
     1
100
AcDbLine
 10
109.35
 20
50.233975
 30
0.0
 11
117.395305
 21
50.233975
 31
0.0
  0
ARC
  5
D7
100
AcDbEntity
  8
LAY-1
  6
CONTINUOUS
 62
     7
100
AcDbCircle
 10
194.335607
 20
56.307943
 30
0.0
 40
5.0
100
AcDbArc
 50
274.803508
 51
30.0
  0
LINE
  5
D8
100
AcDbEntity
  8
LAY-1
  6
CONTINUOUS
 62
     7
100
AcDbLine
 10
156.918097
 20
77.155446
 30
0.0
 11
162.501924
 21
67.483975
 31
0.0
  0
ARC
  5
D9
100
AcDbEntity
  8
LAY-1
  6
CONTINUOUS
 62
     7
100
AcDbCircle
 10
167.986751
 20
74.983975
 30
0.0
 40
5.0
100
AcDbArc
 50
210.0
 51
270.0
  0
ARC
  5
DA
100
AcDbEntity
  8
LAY-1
  6
CONTINUOUS
 62
     7
100
AcDbCircle
 10
166.832051
 20
69.983975
 30
0.0
 40
5.0
100
AcDbArc
 50
210.0
 51
270.0
  0
ARC
  5
DB
100
AcDbEntity
  8
LAY-1
  6
CONTINUOUS
 62
     7
100
AcDbCircle
 10
211.423234
 20
63.711305
 30
0.0
 40
10.0
100
AcDbArc
 50
210.0
 51
280.943317
  0
LINE
  5
DC
100
AcDbEntity
  8
LAY-1
  6
CONTINUOUS
 62
     7
100
AcDbLine
 10
233.544819
 20
77.983975
 30
0.0
 11
250.35
 21
77.983975
 31
0.0
  0
ARC
  5
DD
100
AcDbEntity
  8
LAY-1
  6
CONTINUOUS
 62
     7
100
AcDbCircle
 10
180.1
 20
225.710857
 30
0.0
 40
178.5
100
AcDbArc
 50
275.548314
 51
286.081969
  0
ARC
  5
DE
100
AcDbEntity
  8
LAY-1
  6
CONTINUOUS
 62
     7
100
AcDbCircle
 10
180.1
 20
225.710857
 30
0.0
 40
175.0
100
AcDbArc
 50
280.943317
 51
285.499151
  0
LINE
  5
DF
100
AcDbEntity
  8
LAY-1
  6
CONTINUOUS
 62
     7
100
AcDbLine
 10
242.739073
 20
50.229355
 30
0.0
 11
242.739073
 21
33.983975
 31
0.0
  0
LINE
  5
E0
100
AcDbEntity
  8
LAY-1
  6
CONTINUOUS
 62
     1
100
AcDbLine
 10
172.621551
 20
92.383975
 30
0.0
 11
173.021551
 21
90.891154
 31
0.0
  0
ARC
  5
E1
100
AcDbEntity
  8
LAY-1
  6
CONTINUOUS
 62
     7
100
AcDbCircle
 10
140.098284
 20
89.343978
 30
0.0
 40
5.0
100
AcDbArc
 50
282.59118
 51
0.0
  0
ARC
  5
E2
100
AcDbEntity
  8
LAY-1
  6
CONTINUOUS
 62
     7
100
AcDbCircle
 10
220.098284
 20
89.344744
 30
0.0
 40
5.0
100
AcDbArc
 50
180.0
 51
257.409918
  0
LINE
  5
E3
100
AcDbEntity
  8
LAY-1
  6
CONTINUOUS
 62
     7
100
AcDbLine
 10
112.6
 20
60.483975
 30
0.0
 11
109.85
 21
60.483975
 31
0.0
  0
ARC
  5
E4
100
AcDbEntity
  8
LAY-1
  6
CONTINUOUS
 62
     7
100
AcDbCircle
 10
119.90651
 20
34.983975
 30
0.0
 40
25.0
100
AcDbArc
 50
72.48428
 51
90.0
  0
ARC
  5
E5
100
AcDbEntity
  8
LAY-1
  6
CONTINUOUS
 62
     7
100
AcDbCircle
 10
113.466025
 20
60.983975
 30
0.0
 40
1.0
100
AcDbArc
 50
210.0
 51
270.0
  0
LINE
  5
E6
100
AcDbEntity
  8
LAY-1
  6
CONTINUOUS
 62
     7
100
AcDbLine
 10
109.85
 20
75.483975
 30
0.0
 11
112.6
 21
75.483975
 31
0.0
  0
ARC
  5
E7
100
AcDbEntity
  8
LAY-1
  6
CONTINUOUS
 62
     7
100
AcDbCircle
 10
119.90651
 20
100.983975
 30
0.0
 40
25.0
100
AcDbArc
 50
270.0
 51
287.51572
  0
LINE
  5
E8
100
AcDbEntity
  8
LAY-1
  6
CONTINUOUS
 62
     7
100
AcDbLine
 10
119.90651
 20
75.983975
 30
0.0
 11
113.466025
 21
75.983975
 31
0.0
  0
ARC
  5
E9
100
AcDbEntity
  8
LAY-1
  6
CONTINUOUS
 62
     7
100
AcDbCircle
 10
113.466025
 20
74.983975
 30
0.0
 40
1.0
100
AcDbArc
 50
90.0
 51
150.0
  0
LINE
  5
EA
100
AcDbEntity
  8
LAY-1
  6
CONTINUOUS
 62
     7
100
AcDbLine
 10
119.90651
 20
59.983975
 30
0.0
 11
113.466025
 21
59.983975
 31
0.0
  0
LINE
  5
EB
100
AcDbEntity
  8
LAY-1
  6
CONTINUOUS
 62
     7
100
AcDbLine
 10
109.35
 20
99.233975
 30
0.0
 11
109.35
 21
84.733975
 31
0.0
  0
LINE
  5
EC
100
AcDbEntity
  8
LAY-1
  6
CONTINUOUS
 62
     7
100
AcDbLine
 10
117.395305
 20
52.711771
 30
0.0
 11
117.395305
 21
37.733975
 31
0.0
  0
LINE
  5
ED
100
AcDbEntity
  8
LAY-1
  6
CONTINUOUS
 62
     7
100
AcDbLine
 10
109.85
 20
60.483975
 30
0.0
 11
109.85
 21
75.483975
 31
0.0
  0
LINE
  5
EE
100
AcDbEntity
  8
LAY-1
  6
CONTINUOUS
 62
     7
100
AcDbLine
 10
117.395305
 20
98.233975
 30
0.0
 11
117.395305
 21
83.256178
 31
0.0
  0
ARC
  5
EF
100
AcDbEntity
  8
LAY-1
  6
CONTINUOUS
 62
     7
100
AcDbCircle
 10
197.6
 20
45.558838
 30
0.0
 40
2.5
100
AcDbArc
 50
95.548314
 51
180.0
  0
LINE
  5
F0
100
AcDbEntity
  8
LAY-1
  6
CONTINUOUS
 62
     7
100
AcDbLine
 10
109.35
 20
51.233975
 30
0.0
 11
108.85
 21
51.233975
 31
0.0
  0
ARC
  5
F1
100
AcDbEntity
  8
LAY-1
  6
CONTINUOUS
 62
     7
100
AcDbCircle
 10
193.367949
 20
64.983975
 30
0.0
 40
5.0
100
AcDbArc
 50
30.0
 51
90.0
  0
LINE
  5
F2
100
AcDbEntity
  8
LAY-1
  6
CONTINUOUS
 62
     7
100
AcDbLine
 10
197.698076
 20
67.483975
 30
0.0
 11
202.76298
 21
58.711305
 31
0.0
  0
ARC
  5
F3
100
AcDbEntity
  8
LAY-1
  6
CONTINUOUS
 62
     7
100
AcDbCircle
 10
192.213249
 20
59.983975
 30
0.0
 40
5.0
100
AcDbArc
 50
30.0
 51
90.0
  0
LINE
  5
F4
100
AcDbEntity
  8
LAY-1
  6
CONTINUOUS
 62
     7
100
AcDbLine
 10
167.596098
 20
101.133975
 30
0.0
 11
172.6
 21
101.133975
 31
0.0
  0
LINE
  5
F5
100
AcDbEntity
  8
LAY-1
  6
CONTINUOUS
 62
     7
100
AcDbLine
 10
108.85
 20
51.233975
 30
0.0
 11
108.85
 21
84.733975
 31
0.0
  0
LINE
  5
F6
100
AcDbEntity
  8
LAY-1
  6
CONTINUOUS
 62
     7
100
AcDbLine
 10
160.984127
 20
77.112876
 30
0.0
 11
163.656624
 21
72.483975
 31
0.0
  0
LINE
  5
F7
100
AcDbEntity
  8
LAY-1
  6
CONTINUOUS
 62
     7
100
AcDbLine
 10
108.85
 20
84.733975
 30
0.0
 11
109.35
 21
84.733975
 31
0.0
  0
LINE
  5
F8
100
AcDbEntity
  8
LAY-1
  6
CONTINUOUS
 62
     7
100
AcDbLine
 10
109.35
 20
51.233975
 30
0.0
 11
109.35
 21
36.733975
 31
0.0
  0
LINE
  5
F9
100
AcDbEntity
  8
LAY-1
  6
CONTINUOUS
 62
     7
100
AcDbLine
 10
112.6
 20
75.483975
 30
0.0
 11
112.6
 21
60.483975
 31
0.0
  0
LINE
  5
FA
100
AcDbEntity
  8
LAY-1
  6
CONTINUOUS
 62
     7
100
AcDbLine
 10
109.85
 20
75.483975
 30
0.0
 11
108.85
 21
76.483975
 31
0.0
  0
ARC
  5
FB
100
AcDbEntity
  8
LAY-1
  6
CONTINUOUS
 62
     7
100
AcDbCircle
 10
180.1
 20
-89.742908
 30
0.0
 40
175.0
100
AcDbArc
 50
101.126907
 51
107.51572
  0
LINE
  5
FC
100
AcDbEntity
  8
LAY-1
  6
CONTINUOUS
 62
     7
100
AcDbLine
 10
108.85
 20
59.483975
 30
0.0
 11
109.85
 21
60.483975
 31
0.0
  0
LINE
  5
FD
100
AcDbEntity
  8
LAY-1
  6
EXLTYPE4
 62
     1
100
AcDbLine
 10
109.35
 20
95.233975
 30
0.0
 11
117.395305
 21
95.233975
 31
0.0
  0
LINE
  5
FE
100
AcDbEntity
  8
LAY-1
  6
EXLTYPE4
 62
     1
100
AcDbLine
 10
242.739073
 20
89.483975
 30
0.0
 11
251.35
 21
89.483975
 31
0.0
  0
LINE
  5
FF
100
AcDbEntity
  8
LAY-1
  6
CONTINUOUS
 62
     7
100
AcDbLine
 10
195.1
 20
45.558838
 30
0.0
 11
195.1
 21
43.483975
 31
0.0
  0
LINE
  5
100
100
AcDbEntity
  8
LAY-1
  6
CONTINUOUS
 62
     7
100
AcDbLine
 10
179.1
 20
69.983975
 30
0.0
 11
167.986751
 21
69.983975
 31
0.0
  0
LINE
  5
101
100
AcDbEntity
  8
LAY-1
  6
EXLTYPE4
 62
     1
100
AcDbLine
 10
242.739073
 20
98.983975
 30
0.0
 11
251.35
 21
98.983975
 31
0.0
  0
LINE
  5
102
100
AcDbEntity
  8
LAY-1
  6
EXLTYPE4
 62
     1
100
AcDbLine
 10
242.739073
 20
36.983975
 30
0.0
 11
251.35
 21
36.983975
 31
0.0
  0
LINE
  5
103
100
AcDbEntity
  8
LAY-1
  6
CONTINUOUS
 62
     7
100
AcDbLine
 10
240.88612
 20
83.32378
 30
0.0
 11
234.905007
 21
81.721145
 31
0.0
  0
LINE
  5
104
100
AcDbEntity
  8
LAY-1
  6
CONTINUOUS
 62
     7
100
AcDbLine
 10
186.162178
 20
64.983975
 30
0.0
 11
192.213249
 21
64.983975
 31
0.0
  0
LINE
  5
105
100
AcDbEntity
  8
LAY-1
  6
CONTINUOUS
 62
     7
100
AcDbLine
 10
166.832051
 20
64.983975
 30
0.0
 11
174.037822
 21
64.983975
 31
0.0
  0
ARC
  5
106
100
AcDbEntity
  8
LAY-1
  6
CONTINUOUS
 62
     7
100
AcDbCircle
 10
180.1
 20
225.710857
 30
0.0
 40
178.5
100
AcDbArc
 50
252.524264
 51
264.451686
  0
LINE
  5
107
100
AcDbEntity
  8
LAY-1
  6
CONTINUOUS
 62
     7
100
AcDbLine
 10
250.35
 20
77.983975
 30
0.0
 11
250.35
 21
57.983975
 31
0.0
  0
ARC
  5
108
100
AcDbEntity
  8
LAY-1
  6
CONTINUOUS
 62
     7
100
AcDbCircle
 10
180.1
 20
225.710857
 30
0.0
 40
175.0
100
AcDbArc
 50
252.48428
 51
267.887763
  0
ARC
  5
109
100
AcDbEntity
  8
LAY-1
  6
CONTINUOUS
 62
     7
100
AcDbCircle
 10
233.544819
 20
102.983975
 30
0.0
 40
25.0
100
AcDbArc
 50
254.500849
 51
270.0
  0
LINE
  5
10A
100
AcDbEntity
  8
LAY-1
  6
CONTINUOUS
 62
     7
100
AcDbLine
 10
193.367949
 20
69.983975
 30
0.0
 11
181.1
 21
69.983975
 31
0.0
  0
LINE
  5
10B
100
AcDbEntity
  8
LAY-1
  6
CONTINUOUS
 62
     7
100
AcDbLine
 10
172.1
 20
99.883975
 30
0.0
 11
172.621551
 21
99.883975
 31
0.0
  0
LINE
  5
10C
100
AcDbEntity
  8
LAY-1
  6
CONTINUOUS
 62
     7
100
AcDbLine
 10
172.621551
 20
99.883975
 30
0.0
 11
173.021551
 21
99.483975
 31
0.0
  0
LINE
  5
10D
100
AcDbEntity
  8
LAY-1
  6
CONTINUOUS
 62
     1
100
AcDbLine
 10
172.621551
 20
85.077219
 30
0.0
 11
172.621551
 21
85.097227
 31
0.0
  0
LINE
  5
10E
100
AcDbEntity
  8
LAY-1
  6
CONTINUOUS
 62
     7
100
AcDbLine
 10
173.021551
 20
95.712424
 30
0.0
 11
173.021551
 21
85.122313
 31
0.0
  0
ARC
  5
10F
100
AcDbEntity
  8
LAY-1
  6
CONTINUOUS
 62
     7
100
AcDbCircle
 10
180.1
 20
-89.742908
 30
0.0
 40
175.0
100
AcDbArc
 50
74.500849
 51
89.181461
  0
ARC
  5
110
100
AcDbEntity
  8
LAY-1
  6
CONTINUOUS
 62
     7
100
AcDbCircle
 10
180.1
 20
-89.742908
 30
0.0
 40
178.5
100
AcDbArc
 50
73.918031
 51
77.409918
  0
LINE
  5
111
100
AcDbEntity
  8
LAY-1
  6
CONTINUOUS
 62
     7
100
AcDbLine
 10
172.85
 20
66.733975
 30
0.0
 11
172.1
 21
65.983975
 31
0.0
  0
ARC
  5
112
100
AcDbEntity
  8
LAY-1
  6
CONTINUOUS
 62
     7
100
AcDbCircle
 10
180.1
 20
-89.742908
 30
0.0
 40
178.5
100
AcDbArc
 50
102.59118
 51
107.475736
  0
LINE
  5
113
100
AcDbEntity
  8
LAY-1
  6
CONTINUOUS
 62
     7
100
AcDbLine
 10
171.1
 20
64.983975
 30
0.0
 11
171.1
 21
65.983975
 31
0.0
  0
LINE
  5
114
100
AcDbEntity
  8
LAY-1
  6
CONTINUOUS
 62
     7
100
AcDbLine
 10
171.1
 20
65.983975
 30
0.0
 11
172.1
 21
65.983975
 31
0.0
  0
LINE
  5
115
100
AcDbEntity
  8
LAY-1
  6
CONTINUOUS
 62
     7
100
AcDbLine
 10
189.1
 20
65.983975
 30
0.0
 11
189.1
 21
64.983975
 31
0.0
  0
LINE
  5
116
100
AcDbEntity
  8
LAY-1
  6
CONTINUOUS
 62
     7
100
AcDbLine
 10
187.2
 20
69.983975
 30
0.0
 11
187.2
 21
69.977975
 31
0.0
  0
LINE
  5
117
100
AcDbEntity
  8
LAY-1
  6
CONTINUOUS
 62
     1
100
AcDbLine
 10
172.6
 20
69.983975
 30
0.0
 11
172.6
 21
66.483975
 31
0.0
  0
LINE
  5
118
100
AcDbEntity
  8
LAY-1
  6
CONTINUOUS
 62
     1
100
AcDbLine
 10
187.6
 20
69.983975
 30
0.0
 11
187.6
 21
66.483975
 31
0.0
  0
LINE
  5
119
100
AcDbEntity
  8
LAY-1
  6
EXLTYPE4
 62
     1
100
AcDbLine
 10
109.35
 20
85.733975
 30
0.0
 11
117.395305
 21
85.733975
 31
0.0
  0
LINE
  5
11A
100
AcDbEntity
  8
LAY-1
  6
CONTINUOUS
 62
     7
100
AcDbLine
 10
165.1
 20
43.483975
 30
0.0
 11
170.6
 21
43.483975
 31
0.0
  0
ARC
  5
11B
100
AcDbEntity
  8
LAY-1
  6
CONTINUOUS
 62
     7
100
AcDbCircle
 10
243.739073
 20
101.983975
 30
0.0
 40
1.0
100
AcDbArc
 50
90.0
 51
180.0
  0
LINE
  5
11C
100
AcDbEntity
  8
LAY-1
  6
CONTINUOUS
 62
     7
100
AcDbLine
 10
209.621551
 20
102.983975
 30
0.0
 11
209.621551
 21
82.749057
 31
0.0
  0
ARC
  5
11D
100
AcDbEntity
  8
LAY-1
  6
CONTINUOUS
 62
     7
100
AcDbCircle
 10
123.493093
 20
90.056725
 30
0.0
 40
10.0
100
AcDbArc
 50
255.0
 51
287.475736
  0
LINE
  5
11E
100
AcDbEntity
  8
LAY-1
  6
CONTINUOUS
 62
     7
100
AcDbLine
 10
188.1
 20
65.983975
 30
0.0
 11
187.35
 21
66.733975
 31
0.0
  0
ARC
  5
11F
100
AcDbEntity
  8
LAY-1
  6
CONTINUOUS
 62
     7
100
AcDbCircle
 10
123.493093
 20
45.911224
 30
0.0
 40
10.0
100
AcDbArc
 50
72.524264
 51
105.0
  0
ARC
  5
120
100
AcDbEntity
  8
LAY-1
  6
CONTINUOUS
 62
     7
100
AcDbCircle
 10
233.544819
 20
32.983975
 30
0.0
 40
25.0
100
AcDbArc
 50
90.0
 51
105.499151
  0
ARC
  5
121
100
AcDbEntity
  8
LAY-1
  6
CONTINUOUS
 62
     7
100
AcDbCircle
 10
119.895305
 20
83.256178
 30
0.0
 40
2.5
100
AcDbArc
 50
180.0
 51
255.0
  0
LINE
  5
122
100
AcDbEntity
  8
LAY-1
  6
EXLTYPE4
 62
     1
100
AcDbLine
 10
242.739073
 20
46.483975
 30
0.0
 11
251.35
 21
46.483975
 31
0.0
  0
LINE
  5
123
100
AcDbEntity
  8
LAY-1
  6
CONTINUOUS
 62
     7
100
AcDbLine
 10
119.248257
 20
80.841364
 30
0.0
 11
120.904903
 21
80.397467
 31
0.0
  0
LINE
  5
124
100
AcDbEntity
  8
LAY-1
  6
CONTINUOUS
 62
     7
100
AcDbLine
 10
234.905007
 20
54.246804
 30
0.0
 11
240.88612
 21
52.644169
 31
0.0
  0
ARC
  5
125
100
AcDbEntity
  8
LAY-1
  6
CONTINUOUS
 62
     7
100
AcDbCircle
 10
240.239073
 20
85.738595
 30
0.0
 40
2.5
100
AcDbArc
 50
285.0
 51
0.0
  0
ARC
  5
126
100
AcDbEntity
  8
LAY-1
  6
CONTINUOUS
 62
     7
100
AcDbCircle
 10
240.239073
 20
50.229355
 30
0.0
 40
2.5
100
AcDbArc
 50
0.0
 51
75.0
  0
LINE
  5
127
100
AcDbEntity
  8
LAY-1
  6
CONTINUOUS
 62
     7
100
AcDbLine
 10
109.35
 20
36.733975
 30
0.0
 11
116.395305
 21
36.733975
 31
0.0
  0
LINE
  5
128
100
AcDbEntity
  8
LAY-1
  6
CONTINUOUS
 62
     7
100
AcDbLine
 10
120.904903
 20
55.570482
 30
0.0
 11
119.248257
 21
55.126586
 31
0.0
  0
ARC
  5
129
100
AcDbEntity
  8
LAY-1
  6
CONTINUOUS
 62
     7
100
AcDbCircle
 10
232.316816
 20
91.380404
 30
0.0
 40
10.0
100
AcDbArc
 50
253.918031
 51
285.0
  0
ARC
  5
12A
100
AcDbEntity
  8
LAY-1
  6
CONTINUOUS
 62
     7
100
AcDbCircle
 10
232.316816
 20
44.587545
 30
0.0
 40
10.0
100
AcDbArc
 50
75.0
 51
106.081969
  0
LINE
  5
12B
100
AcDbEntity
  8
LAY-1
  6
CONTINUOUS
 62
     7
100
AcDbLine
 10
250.35
 20
57.983975
 30
0.0
 11
233.544819
 21
57.983975
 31
0.0
  0
ARC
  5
12C
100
AcDbEntity
  8
LAY-1
  6
CONTINUOUS
 62
     7
100
AcDbCircle
 10
119.895305
 20
52.711771
 30
0.0
 40
2.5
100
AcDbArc
 50
105.0
 51
180.0
  0
ARC
  5
12D
100
AcDbEntity
  8
LAY-1
  6
CONTINUOUS
 62
     7
100
AcDbCircle
 10
243.739073
 20
33.983975
 30
0.0
 40
1.0
100
AcDbArc
 50
180.0
 51
270.0
  0
ARC
  5
12E
100
AcDbEntity
  8
LAY-1
  6
CONTINUOUS
 62
     7
100
AcDbCircle
 10
148.257843
 20
72.155446
 30
0.0
 40
10.0
100
AcDbArc
 50
30.0
 51
101.126907
  0
ARC
  5
12F
100
AcDbEntity
  8
LAY-1
  6
CONTINUOUS
 62
     7
100
AcDbCircle
 10
165.314254
 20
79.612876
 30
0.0
 40
5.0
100
AcDbArc
 50
94.989603
 51
210.0
  0
LINE
  5
130
100
AcDbEntity
  8
LAY-1
  6
CONTINUOUS
 62
     7
100
AcDbLine
 10
243.739073
 20
32.983975
 30
0.0
 11
251.35
 21
32.983975
 31
0.0
  0
ARC
  5
131
100
AcDbEntity
  8
LAY-1
  6
EXLTYPE4
 62
     1
100
AcDbCircle
 10
160.098284
 20
92.663917
 30
0.0
 40
5.0
100
AcDbArc
 50
276.257202
 51
0.0
  0
LINE
  5
132
100
AcDbEntity
  8
LAY-1
  6
CONTINUOUS
 62
     7
100
AcDbLine
 10
205.621551
 20
102.983975
 30
0.0
 11
205.621551
 21
83.386091
 31
0.0
  0
LINE
  5
133
100
AcDbEntity
  8
LAY-1
  6
CONTINUOUS
 62
     7
100
AcDbLine
 10
250.35
 20
57.983975
 30
0.0
 11
251.35
 21
56.983975
 31
0.0
  0
LINE
  5
134
100
AcDbEntity
  8
LAY-1
  6
CONTINUOUS
 62
     7
100
AcDbLine
 10
251.35
 20
78.983975
 30
0.0
 11
250.35
 21
77.983975
 31
0.0
  0
LINE
  5
135
100
AcDbEntity
  8
LAY-1
  6
CONTINUOUS
 62
     7
100
AcDbLine
 10
243.739073
 20
102.983975
 30
0.0
 11
251.35
 21
102.983975
 31
0.0
  0
LINE
  5
136
100
AcDbEntity
  8
LAY-1
  6
CONTINUOUS
 62
     7
100
AcDbLine
 10
242.739073
 20
101.983975
 30
0.0
 11
242.739073
 21
85.738595
 31
0.0
  0
LINE
  5
137
100
AcDbEntity
  8
LAY-1
  6
CONTINUOUS
 62
     7
100
AcDbLine
 10
116.395305
 20
99.233975
 30
0.0
 11
109.35
 21
99.233975
 31
0.0
  0
LINE
  5
138
100
AcDbEntity
  8
LAY-1
  6
CONTINUOUS
 62
     1
100
AcDbLine
 10
172.621551
 20
92.383975
 30
0.0
 11
172.621551
 21
96.112424
 31
0.0
  0
LINE
  5
139
100
AcDbEntity
  8
LAY-1
  6
CONTINUOUS
 62
     7
100
AcDbLine
 10
145.1
 20
95.884066
 30
0.0
 11
145.1
 21
89.343978
 31
0.0
  0
LINE
  5
13A
100
AcDbEntity
  8
LAY-1
  6
CONTINUOUS
 62
     7
100
AcDbLine
 10
215.1
 20
95.884066
 30
0.0
 11
215.1
 21
89.343978
 31
0.0
  0
LINE
  5
13B
100
AcDbEntity
  8
LAY-1
  6
CONTINUOUS
 62
     7
100
AcDbLine
 10
188.1
 20
99.883975
 30
0.0
 11
187.578449
 21
99.883975
 31
0.0
  0
LINE
  5
13C
100
AcDbEntity
  8
LAY-1
  6
CONTINUOUS
 62
     1
100
AcDbLine
 10
187.578449
 20
92.383975
 30
0.0
 11
187.178449
 21
90.891154
 31
0.0
  0
LINE
  5
13D
100
AcDbEntity
  8
LAY-1
  6
CONTINUOUS
 62
     7
100
AcDbLine
 10
187.578449
 20
99.883975
 30
0.0
 11
187.178449
 21
99.483975
 31
0.0
  0
LINE
  5
13E
100
AcDbEntity
  8
LAY-1
  6
CONTINUOUS
 62
     1
100
AcDbLine
 10
187.578449
 20
85.077219
 30
0.0
 11
187.578449
 21
85.097227
 31
0.0
  0
LINE
  5
13F
100
AcDbEntity
  8
LAY-1
  6
CONTINUOUS
 62
     7
100
AcDbLine
 10
187.178449
 20
95.712424
 30
0.0
 11
187.178449
 21
85.122313
 31
0.0
  0
ARC
  5
140
100
AcDbEntity
  8
LAY-1
  6
EXLTYPE4
 62
     1
100
AcDbCircle
 10
200.101716
 20
92.663917
 30
0.0
 40
5.0
100
AcDbArc
 50
180.0
 51
263.742798
  0
LINE
  5
141
100
AcDbEntity
  8
LAY-1
  6
CONTINUOUS
 62
     1
100
AcDbLine
 10
187.578449
 20
92.383975
 30
0.0
 11
187.578449
 21
96.112424
 31
0.0
  0
LINE
  5
142
100
AcDbEntity
  8
LAY-1
  6
CONTINUOUS
 62
     7
100
AcDbLine
 10
192.604114
 20
102.983975
 30
0.0
 11
192.603722
 21
101.133975
 31
0.0
  0
ARC
  5
143
100
AcDbEntity
  8
LAY-1
  6
EXLTYPE4
 62
     1
100
AcDbCircle
 10
180.101716
 20
-89.742908
 30
0.0
 40
178.5
100
AcDbArc
 50
77.409369
 51
83.742798
  0
LINE
  5
144
100
AcDbEntity
  8
LAY-1
  6
EXLTYPE4
 62
     1
100
AcDbLine
 10
165.1
 20
94.483975
 30
0.0
 11
165.1
 21
92.663917
 31
0.0
  0
LINE
  5
145
100
AcDbEntity
  8
LAY-1
  6
CONTINUOUS
 62
     7
100
AcDbLine
 10
188.1
 20
99.883975
 30
0.0
 11
188.1
 21
101.133975
 31
0.0
  0
LINE
  5
146
100
AcDbEntity
  8
LAY-1
  6
CONTINUOUS
 62
     7
100
AcDbLine
 10
172.1
 20
99.883975
 30
0.0
 11
172.1
 21
101.133975
 31
0.0
  0
ARC
  5
147
100
AcDbEntity
  8
LAY-1
  6
CONTINUOUS
 62
     7
100
AcDbCircle
 10
222.117327
 20
111.983975
 30
0.0
 40
1.0
100
AcDbArc
 50
90.0
 51
165.0
  0
LINE
  5
148
100
AcDbEntity
  8
LAY-1
  6
CONTINUOUS
 62
     7
100
AcDbLine
 10
223.705662
 20
112.983975
 30
0.0
 11
223.85
 21
112.733975
 31
0.0
  0
LINE
  5
149
100
AcDbEntity
  8
LAY-1
  6
CONTINUOUS
 62
     7
100
AcDbLine
 10
223.994338
 20
112.983975
 30
0.0
 11
223.85
 21
112.733975
 31
0.0
  0
ARC
  5
14A
100
AcDbEntity
  8
LAY-1
  6
CONTINUOUS
 62
     7
100
AcDbCircle
 10
138.082673
 20
111.983975
 30
0.0
 40
1.0
100
AcDbArc
 50
15.0
 51
90.0
  0
LINE
  5
14B
100
AcDbEntity
  8
LAY-1
  6
CONTINUOUS
 62
     7
100
AcDbLine
 10
136.494338
 20
112.983975
 30
0.0
 11
136.35
 21
112.733975
 31
0.0
  0
LINE
  5
14C
100
AcDbEntity
  8
LAY-1
  6
CONTINUOUS
 62
     7
100
AcDbLine
 10
136.205662
 20
112.983975
 30
0.0
 11
136.35
 21
112.733975
 31
0.0
  0
LINE
  5
14D
100
AcDbEntity
  8
LAY-1
  6
CONTINUOUS
 62
     7
100
AcDbLine
 10
192.603902
 20
101.133975
 30
0.0
 11
187.6
 21
101.133975
 31
0.0
  0
LINE
  5
14E
100
AcDbEntity
  8
LAY-1
  6
CONTINUOUS
 62
     7
100
AcDbLine
 10
221.151401
 20
112.242794
 30
0.0
 11
220.025294
 21
108.040105
 31
0.0
  0
LINE
  5
14F
100
AcDbEntity
  8
LAY-1
  6
CONTINUOUS
 62
     7
100
AcDbLine
 10
139.048599
 20
112.242794
 30
0.0
 11
140.174706
 21
108.040105
 31
0.0
  0
LINE
  5
150
100
AcDbEntity
  8
LAY-1
  6
CONTINUOUS
 62
     7
100
AcDbLine
 10
187.578449
 20
92.383975
 30
0.0
 11
186.6
 21
92.383975
 31
0.0
  0
LINE
  5
151
100
AcDbEntity
  8
LAY-1
  6
CONTINUOUS
 62
     7
100
AcDbLine
 10
172.621551
 20
92.383975
 30
0.0
 11
173.6
 21
92.383975
 31
0.0
  0
ARC
  5
152
100
AcDbEntity
  8
LAY-1
  6
CONTINUOUS
 62
     7
100
AcDbCircle
 10
214.1
 20
108.983975
 30
0.0
 40
6.0
100
AcDbArc
 50
270.0
 51
350.949111
  0
LINE
  5
153
100
AcDbEntity
  8
LAY-1
  6
EXLTYPE4
 62
     1
100
AcDbLine
 10
214.1
 20
99.483975
 30
0.0
 11
200.1
 21
99.483975
 31
0.0
  0
ARC
  5
154
100
AcDbEntity
  8
LAY-1
  6
CONTINUOUS
 62
     7
100
AcDbCircle
 10
214.1
 20
108.983975
 30
0.0
 40
9.5
100
AcDbArc
 50
294.443335
 51
330.0
  0
ARC
  5
155
100
AcDbEntity
  8
LAY-1
  6
EXLTYPE4
 62
     1
100
AcDbCircle
 10
214.1
 20
108.983975
 30
0.0
 40
9.5
100
AcDbArc
 50
270.0
 51
294.443335
  0
LINE
  5
156
100
AcDbEntity
  8
LAY-1
  6
CONTINUOUS
 62
     7
100
AcDbLine
 10
235.1
 20
105.483975
 30
0.0
 11
224.492305
 21
105.483975
 31
0.0
  0
ARC
  5
157
100
AcDbEntity
  8
LAY-1
  6
CONTINUOUS
 62
     7
100
AcDbCircle
 10
224.492305
 20
102.983975
 30
0.0
 40
2.5
100
AcDbArc
 50
90.0
 51
150.0
  0
ARC
  5
158
100
AcDbEntity
  8
LAY-1
  6
CONTINUOUS
 62
     7
100
AcDbCircle
 10
235.1
 20
106.483975
 30
0.0
 40
1.0
100
AcDbArc
 50
270.0
 51
0.0
  0
ARC
  5
159
100
AcDbEntity
  8
LAY-1
  6
EXLTYPE4
 62
     1
100
AcDbCircle
 10
200.1
 20
94.483975
 30
0.0
 40
5.0
100
AcDbArc
 50
90.0
 51
180.0
  0
LINE
  5
15A
100
AcDbEntity
  8
LAY-1
  6
EXLTYPE4
 62
     1
100
AcDbLine
 10
195.1
 20
94.483975
 30
0.0
 11
195.1
 21
92.663917
 31
0.0
  0
ARC
  5
15B
100
AcDbEntity
  8
LAY-1
  6
CONTINUOUS
 62
     7
100
AcDbCircle
 10
220.1
 20
95.783596
 30
0.0
 40
5.0
100
AcDbArc
 50
114.443335
 51
180.0
  0
LINE
  5
15C
100
AcDbEntity
  8
LAY-1
  6
EXLTYPE4
 62
     1
100
AcDbLine
 10
146.1
 20
99.483975
 30
0.0
 11
160.1
 21
99.483975
 31
0.0
  0
ARC
  5
15D
100
AcDbEntity
  8
LAY-1
  6
EXLTYPE4
 62
     1
100
AcDbCircle
 10
160.1
 20
94.483975
 30
0.0
 40
5.0
100
AcDbArc
 50
0.0
 51
90.0
  0
ARC
  5
15E
100
AcDbEntity
  8
LAY-1
  6
EXLTYPE4
 62
     1
100
AcDbCircle
 10
146.1
 20
108.983975
 30
0.0
 40
9.5
100
AcDbArc
 50
245.556665
 51
270.0
  0
ARC
  5
15F
100
AcDbEntity
  8
LAY-1
  6
CONTINUOUS
 62
     7
100
AcDbCircle
 10
125.1
 20
106.483975
 30
0.0
 40
1.0
100
AcDbArc
 50
180.0
 51
270.0
  0
LINE
  5
160
100
AcDbEntity
  8
LAY-1
  6
CONTINUOUS
 62
     7
100
AcDbLine
 10
125.1
 20
105.483975
 30
0.0
 11
135.707695
 21
105.483975
 31
0.0
  0
ARC
  5
161
100
AcDbEntity
  8
LAY-1
  6
CONTINUOUS
 62
     7
100
AcDbCircle
 10
146.1
 20
108.983975
 30
0.0
 40
6.0
100
AcDbArc
 50
189.050889
 51
270.0
  0
ARC
  5
162
100
AcDbEntity
  8
LAY-1
  6
CONTINUOUS
 62
     7
100
AcDbCircle
 10
146.1
 20
108.983975
 30
0.0
 40
9.5
100
AcDbArc
 50
210.0
 51
245.556665
  0
ARC
  5
163
100
AcDbEntity
  8
LAY-1
  6
CONTINUOUS
 62
     7
100
AcDbCircle
 10
140.1
 20
95.783596
 30
0.0
 40
5.0
100
AcDbArc
 50
0.0
 51
65.556665
  0
LINE
  5
164
100
AcDbEntity
  8
LAY-1
  6
CONTINUOUS
 62
     7
100
AcDbLine
 10
171.35
 20
102.983975
 30
0.0
 11
146.1
 21
102.983975
 31
0.0
  0
ARC
  5
165
100
AcDbEntity
  8
LAY-1
  6
CONTINUOUS
 62
     7
100
AcDbCircle
 10
135.707695
 20
102.983975
 30
0.0
 40
2.5
100
AcDbArc
 50
30.0
 51
90.0
  0
ARC
  5
166
100
AcDbEntity
  8
LAY-1
  6
CONTINUOUS
 62
     7
100
AcDbCircle
 10
162.6
 20
45.558838
 30
0.0
 40
2.5
100
AcDbArc
 50
0.0
 51
84.451686
  0
LINE
  5
167
100
AcDbEntity
  8
LAY-1
  6
CONTINUOUS
 62
     7
100
AcDbLine
 10
165.1
 20
45.558838
 30
0.0
 11
165.1
 21
43.483975
 31
0.0
  0
LINE
  5
168
100
AcDbEntity
  8
LAY-1
  6
CONTINUOUS
 62
     7
100
AcDbLine
 10
186.55
 20
49.733975
 30
0.0
 11
188.6
 21
49.733975
 31
0.0
  0
ARC
  5
169
100
AcDbEntity
  8
LAY-1
  6
CONTINUOUS
 62
     7
100
AcDbCircle
 10
190.525
 20
44.134073
 30
0.0
 40
0.5
100
AcDbArc
 50
131.426606
 51
180.0
  0
ARC
  5
16A
100
AcDbEntity
  8
LAY-1
  6
CONTINUOUS
 62
     7
100
AcDbCircle
 10
190.525
 20
43.983975
 30
0.0
 40
0.5
100
AcDbArc
 50
180.0
 51
270.0
  0
LINE
  5
16B
100
AcDbEntity
  8
LAY-1
  6
CONTINUOUS
 62
     7
100
AcDbLine
 10
190.025
 20
44.134073
 30
0.0
 11
190.025
 21
43.983975
 31
0.0
  0
LINE
  5
16C
100
AcDbEntity
  8
LAY-1
  6
CONTINUOUS
 62
     7
100
AcDbLine
 10
186.6
 20
45.733975
 30
0.0
 11
188.6
 21
45.733975
 31
0.0
  0
LINE
  5
16D
100
AcDbEntity
  8
LAY-1
  6
CONTINUOUS
 62
     7
100
AcDbLine
 10
188.6
 20
49.733975
 30
0.0
 11
189.1
 21
50.233975
 31
0.0
  0
LINE
  5
16E
100
AcDbEntity
  8
LAY-1
  6
CONTINUOUS
 62
     7
100
AcDbLine
 10
186.6
 20
41.983975
 30
0.0
 11
186.6
 21
45.733975
 31
0.0
  0
LINE
  5
16F
100
AcDbEntity
  8
LAY-1
  6
CONTINUOUS
 62
     7
100
AcDbLine
 10
186.6
 20
40.483975
 30
0.0
 11
186.6
 21
41.983975
 31
0.0
  0
LINE
  5
170
100
AcDbEntity
  8
LAY-1
  6
CONTINUOUS
 62
     7
100
AcDbLine
 10
184.475
 20
40.483975
 30
0.0
 11
186.6
 21
40.483975
 31
0.0
  0
LINE
  5
171
100
AcDbEntity
  8
LAY-1
  6
CONTINUOUS
 62
     7
100
AcDbLine
 10
184.475
 20
41.983975
 30
0.0
 11
184.475
 21
40.483975
 31
0.0
  0
LINE
  5
172
100
AcDbEntity
  8
LAY-1
  6
CONTINUOUS
 62
     7
100
AcDbLine
 10
180.1
 20
41.983975
 30
0.0
 11
184.475
 21
41.983975
 31
0.0
  0
LINE
  5
173
100
AcDbEntity
  8
LAY-1
  6
CONTINUOUS
 62
     7
100
AcDbLine
 10
188.6
 20
45.733975
 30
0.0
 11
188.6
 21
49.733975
 31
0.0
  0
LINE
  5
174
100
AcDbEntity
  8
LAY-1
  6
CONTINUOUS
 62
     7
100
AcDbLine
 10
190.1
 20
45.85
 30
0.0
 11
189.6
 21
44.983975
 31
0.0
  0
LINE
  5
175
100
AcDbEntity
  8
LAY-1
  6
CONTINUOUS
 62
     7
100
AcDbLine
 10
189.6
 20
50.233975
 30
0.0
 11
189.1
 21
50.233975
 31
0.0
  0
LINE
  5
176
100
AcDbEntity
  8
LAY-1
  6
CONTINUOUS
 62
     7
100
AcDbLine
 10
190.1
 20
49.733975
 30
0.0
 11
189.6
 21
50.233975
 31
0.0
  0
LINE
  5
177
100
AcDbEntity
  8
LAY-1
  6
CONTINUOUS
 62
     7
100
AcDbLine
 10
189.6
 20
43.483975
 30
0.0
 11
189.6
 21
44.983975
 31
0.0
  0
LINE
  5
178
100
AcDbEntity
  8
LAY-1
  6
CONTINUOUS
 62
     7
100
AcDbLine
 10
180.1
 20
35.483975
 30
0.0
 11
189.1
 21
35.483975
 31
0.0
  0
LINE
  5
179
100
AcDbEntity
  8
LAY-1
  6
CONTINUOUS
 62
     7
100
AcDbLine
 10
190.5
 20
36.283975
 30
0.0
 11
189.1
 21
35.483975
 31
0.0
  0
LINE
  5
17A
100
AcDbEntity
  8
LAY-1
  6
CONTINUOUS
 62
     7
100
AcDbLine
 10
190.5
 20
36.283975
 30
0.0
 11
190.5
 21
40.483975
 31
0.0
  0
LINE
  5
17B
100
AcDbEntity
  8
LAY-1
  6
CONTINUOUS
 62
     7
100
AcDbLine
 10
190.5
 20
40.483975
 30
0.0
 11
193.35
 21
40.483975
 31
0.0
  0
LINE
  5
17C
100
AcDbEntity
  8
LAY-1
  6
CONTINUOUS
 62
     7
100
AcDbLine
 10
193.35
 20
40.483975
 30
0.0
 11
193.35
 21
43.483975
 31
0.0
  0
LINE
  5
17D
100
AcDbEntity
  8
LAY-1
  6
CONTINUOUS
 62
     7
100
AcDbLine
 10
190.1
 20
49.733975
 30
0.0
 11
190.1
 21
45.85
 31
0.0
  0
LINE
  5
17E
100
AcDbEntity
  8
LAY-1
  6
CONTINUOUS
 62
     1
100
AcDbLine
 10
189.598928
 20
50.24066
 30
0.0
 11
189.6
 21
44.983975
 31
0.0
  0
LINE
  5
17F
100
AcDbEntity
  8
LAY-1
  6
CONTINUOUS
 62
     7
100
AcDbLine
 10
189.1
 20
50.233975
 30
0.0
 11
186.55
 21
50.233975
 31
0.0
  0
LINE
  5
180
100
AcDbEntity
  8
LAY-1
  6
CONTINUOUS
 62
     7
100
AcDbLine
 10
173.65
 20
49.733975
 30
0.0
 11
171.6
 21
49.733975
 31
0.0
  0
ARC
  5
181
100
AcDbEntity
  8
LAY-1
  6
CONTINUOUS
 62
     7
100
AcDbCircle
 10
169.675
 20
44.134073
 30
0.0
 40
0.5
100
AcDbArc
 50
0.0
 51
48.573394
  0
ARC
  5
182
100
AcDbEntity
  8
LAY-1
  6
CONTINUOUS
 62
     7
100
AcDbCircle
 10
169.675
 20
43.983975
 30
0.0
 40
0.5
100
AcDbArc
 50
270.0
 51
0.0
  0
LINE
  5
183
100
AcDbEntity
  8
LAY-1
  6
CONTINUOUS
 62
     7
100
AcDbLine
 10
170.175
 20
44.134073
 30
0.0
 11
170.175
 21
43.983975
 31
0.0
  0
LINE
  5
184
100
AcDbEntity
  8
LAY-1
  6
CONTINUOUS
 62
     7
100
AcDbLine
 10
173.6
 20
45.733975
 30
0.0
 11
171.6
 21
45.733975
 31
0.0
  0
LINE
  5
185
100
AcDbEntity
  8
LAY-1
  6
CONTINUOUS
 62
     7
100
AcDbLine
 10
171.6
 20
49.733975
 30
0.0
 11
171.1
 21
50.233975
 31
0.0
  0
LINE
  5
186
100
AcDbEntity
  8
LAY-1
  6
CONTINUOUS
 62
     7
100
AcDbLine
 10
173.6
 20
41.983975
 30
0.0
 11
173.6
 21
45.733975
 31
0.0
  0
LINE
  5
187
100
AcDbEntity
  8
LAY-1
  6
CONTINUOUS
 62
     7
100
AcDbLine
 10
173.6
 20
40.483975
 30
0.0
 11
173.6
 21
41.983975
 31
0.0
  0
LINE
  5
188
100
AcDbEntity
  8
LAY-1
  6
CONTINUOUS
 62
     7
100
AcDbLine
 10
175.725
 20
40.483975
 30
0.0
 11
173.6
 21
40.483975
 31
0.0
  0
LINE
  5
189
100
AcDbEntity
  8
LAY-1
  6
CONTINUOUS
 62
     7
100
AcDbLine
 10
175.725
 20
41.983975
 30
0.0
 11
175.725
 21
40.483975
 31
0.0
  0
LINE
  5
18A
100
AcDbEntity
  8
LAY-1
  6
CONTINUOUS
 62
     7
100
AcDbLine
 10
180.1
 20
41.983975
 30
0.0
 11
175.725
 21
41.983975
 31
0.0
  0
LINE
  5
18B
100
AcDbEntity
  8
LAY-1
  6
CONTINUOUS
 62
     7
100
AcDbLine
 10
171.6
 20
45.733975
 30
0.0
 11
171.6
 21
49.733975
 31
0.0
  0
LINE
  5
18C
100
AcDbEntity
  8
LAY-1
  6
CONTINUOUS
 62
     7
100
AcDbLine
 10
170.1
 20
45.85
 30
0.0
 11
170.6
 21
44.983975
 31
0.0
  0
LINE
  5
18D
100
AcDbEntity
  8
LAY-1
  6
CONTINUOUS
 62
     7
100
AcDbLine
 10
170.6
 20
50.233975
 30
0.0
 11
171.1
 21
50.233975
 31
0.0
  0
LINE
  5
18E
100
AcDbEntity
  8
LAY-1
  6
CONTINUOUS
 62
     7
100
AcDbLine
 10
170.1
 20
49.733975
 30
0.0
 11
170.6
 21
50.233975
 31
0.0
  0
LINE
  5
18F
100
AcDbEntity
  8
LAY-1
  6
CONTINUOUS
 62
     7
100
AcDbLine
 10
170.6
 20
43.483975
 30
0.0
 11
170.6
 21
44.983975
 31
0.0
  0
LINE
  5
190
100
AcDbEntity
  8
LAY-1
  6
CONTINUOUS
 62
     7
100
AcDbLine
 10
180.1
 20
35.483975
 30
0.0
 11
171.1
 21
35.483975
 31
0.0
  0
LINE
  5
191
100
AcDbEntity
  8
LAY-1
  6
CONTINUOUS
 62
     7
100
AcDbLine
 10
169.7
 20
36.283975
 30
0.0
 11
171.1
 21
35.483975
 31
0.0
  0
LINE
  5
192
100
AcDbEntity
  8
LAY-1
  6
CONTINUOUS
 62
     7
100
AcDbLine
 10
169.7
 20
36.283975
 30
0.0
 11
169.7
 21
40.483975
 31
0.0
  0
LINE
  5
193
100
AcDbEntity
  8
LAY-1
  6
CONTINUOUS
 62
     7
100
AcDbLine
 10
169.7
 20
40.483975
 30
0.0
 11
166.85
 21
40.483975
 31
0.0
  0
LINE
  5
194
100
AcDbEntity
  8
LAY-1
  6
CONTINUOUS
 62
     7
100
AcDbLine
 10
166.85
 20
40.483975
 30
0.0
 11
166.85
 21
43.483975
 31
0.0
  0
LINE
  5
195
100
AcDbEntity
  8
LAY-1
  6
CONTINUOUS
 62
     7
100
AcDbLine
 10
170.1
 20
49.733975
 30
0.0
 11
170.1
 21
45.85
 31
0.0
  0
LINE
  5
196
100
AcDbEntity
  8
LAY-1
  6
CONTINUOUS
 62
     1
100
AcDbLine
 10
170.601072
 20
50.24066
 30
0.0
 11
170.6
 21
44.983975
 31
0.0
  0
LINE
  5
197
100
AcDbEntity
  8
LAY-1
  6
CONTINUOUS
 62
     7
100
AcDbLine
 10
171.1
 20
50.233975
 30
0.0
 11
173.65
 21
50.233975
 31
0.0
  0
LINE
  5
198
100
AcDbEntity
  8
LAY-1
  6
CONTINUOUS
 62
     1
100
AcDbLine
 10
170.1
 20
49.733975
 30
0.0
 11
170.1
 21
50.996805
 31
0.0
  0
LINE
  5
199
100
AcDbEntity
  8
LAY-1
  6
CONTINUOUS
 62
     1
100
AcDbLine
 10
190.1
 20
49.733975
 30
0.0
 11
190.1
 21
50.996805
 31
0.0
  0
LINE
  5
19A
100
AcDbEntity
  8
LAY-1
  6
CONTINUOUS
 62
     7
100
AcDbLine
 10
170.1
 20
44.508975
 30
0.0
 11
170.6
 21
45.008975
 31
0.0
  0
LINE
  5
19B
100
AcDbEntity
  8
LAY-1
  6
CONTINUOUS
 62
     1
100
AcDbLine
 10
170.1
 20
44.508975
 30
0.0
 11
170.1
 21
45.85
 31
0.0
  0
LINE
  5
19C
100
AcDbEntity
  8
LAY-1
  6
CONTINUOUS
 62
     1
100
AcDbLine
 10
190.1
 20
44.508975
 30
0.0
 11
190.1
 21
45.85
 31
0.0
  0
LINE
  5
19D
100
AcDbEntity
  8
LAY-1
  6
CONTINUOUS
 62
     7
100
AcDbLine
 10
189.6
 20
50.24066
 30
0.0
 11
189.6
 21
50.968905
 31
0.0
  0
LINE
  5
19E
100
AcDbEntity
  8
LAY-1
  6
CONTINUOUS
 62
     7
100
AcDbLine
 10
190.35
 20
44.508975
 30
0.0
 11
191.79212
 21
44.852182
 31
0.0
  0
LINE
  5
19F
100
AcDbEntity
  8
LAY-1
  6
CONTINUOUS
 62
     7
100
AcDbLine
 10
190.35
 20
44.508975
 30
0.0
 11
189.6
 21
44.508975
 31
0.0
  0
LINE
  5
1A0
100
AcDbEntity
  8
LAY-1
  6
CONTINUOUS
 62
     7
100
AcDbLine
 10
192.1
 20
43.483975
 30
0.0
 11
192.1
 21
44.608975
 31
0.0
  0
LINE
  5
1A1
100
AcDbEntity
  8
LAY-1
  6
CONTINUOUS
 62
     7
100
AcDbLine
 10
170.6
 20
50.233975
 30
0.0
 11
170.6
 21
50.968905
 31
0.0
  0
LINE
  5
1A2
100
AcDbEntity
  8
LAY-1
  6
CONTINUOUS
 62
     7
100
AcDbLine
 10
169.85
 20
44.508975
 30
0.0
 11
170.6
 21
44.508975
 31
0.0
  0
LINE
  5
1A3
100
AcDbEntity
  8
LAY-1
  6
CONTINUOUS
 62
     7
100
AcDbLine
 10
169.85
 20
44.508975
 30
0.0
 11
168.40788
 21
44.852182
 31
0.0
  0
LINE
  5
1A4
100
AcDbEntity
  8
LAY-1
  6
CONTINUOUS
 62
     7
100
AcDbLine
 10
168.1
 20
43.483975
 30
0.0
 11
168.1
 21
44.608975
 31
0.0
  0
LINE
  5
1A5
100
AcDbEntity
  8
LAY-1
  6
CONTINUOUS
 62
     7
100
AcDbLine
 10
190.1
 20
44.508975
 30
0.0
 11
189.6
 21
45.008975
 31
0.0
  0
ARC
  5
1A6
100
AcDbEntity
  8
LAY-1
  6
CONTINUOUS
 62
     7
100
AcDbCircle
 10
191.85
 20
44.608975
 30
0.0
 40
0.25
100
AcDbArc
 50
0.0
 51
103.386693
  0
ARC
  5
1A7
100
AcDbEntity
  8
LAY-1
  6
CONTINUOUS
 62
     7
100
AcDbCircle
 10
168.35
 20
44.608975
 30
0.0
 40
0.25
100
AcDbArc
 50
76.613307
 51
180.0
  0
LINE
  5
1A8
100
AcDbEntity
  8
LAY-1
  6
EXLTYPE4
 62
     1
100
AcDbLine
 10
186.55
 20
40.483975
 30
0.0
 11
186.55
 21
58.983975
 31
0.0
  0
LINE
  5
1A9
100
AcDbEntity
  8
LAY-1
  6
EXLTYPE4
 62
     1
100
AcDbLine
 10
185.65
 20
58.983975
 30
0.0
 11
185.65
 21
40.483975
 31
0.0
  0
LINE
  5
1AA
100
AcDbEntity
  8
LAY-1
  6
EXLTYPE4
 62
     1
100
AcDbLine
 10
174.55
 20
58.983975
 30
0.0
 11
174.55
 21
40.483975
 31
0.0
  0
LINE
  5
1AB
100
AcDbEntity
  8
LAY-1
  6
EXLTYPE4
 62
     1
100
AcDbLine
 10
173.65
 20
40.483975
 30
0.0
 11
173.65
 21
58.983975
 31
0.0
  0
LINE
  5
1AC
100
AcDbEntity
  8
LAY-1
  6
CONTINUOUS
 62
     7
100
AcDbLine
 10
180.1
 20
62.383975
 30
0.0
 11
183.1
 21
62.383975
 31
0.0
  0
LINE
  5
1AD
100
AcDbEntity
  8
LAY-1
  6
CONTINUOUS
 62
     7
100
AcDbLine
 10
183.1
 20
62.383975
 30
0.0
 11
183.1
 21
61.983975
 31
0.0
  0
LINE
  5
1AE
100
AcDbEntity
  8
LAY-1
  6
CONTINUOUS
 62
     7
100
AcDbLine
 10
188.6
 20
61.983975
 30
0.0
 11
181.1
 21
61.983975
 31
0.0
  0
LINE
  5
1AF
100
AcDbEntity
  8
LAY-1
  6
CONTINUOUS
 62
     1
100
AcDbLine
 10
181.1
 20
58.233975
 30
0.0
 11
181.1
 21
59.058975
 31
0.0
  0
LINE
  5
1B0
100
AcDbEntity
  8
LAY-1
  6
CONTINUOUS
 62
     7
100
AcDbLine
 10
180.925
 20
57.483975
 30
0.0
 11
180.925
 21
58.648475
 31
0.0
  0
LINE
  5
1B1
100
AcDbEntity
  8
LAY-1
  6
CONTINUOUS
 62
     7
100
AcDbLine
 10
180.1
 20
58.233975
 30
0.0
 11
181.1
 21
58.233975
 31
0.0
  0
LINE
  5
1B2
100
AcDbEntity
  8
LAY-1
  6
CONTINUOUS
 62
     1
100
AcDbLine
 10
180.925
 20
57.930866
 30
0.0
 11
181.1
 21
58.233975
 31
0.0
  0
LINE
  5
1B3
100
AcDbEntity
  8
LAY-1
  6
CONTINUOUS
 62
     7
100
AcDbLine
 10
180.925
 20
57.483975
 30
0.0
 11
180.1
 21
57.483975
 31
0.0
  0
LINE
  5
1B4
100
AcDbEntity
  8
LAY-1
  6
CONTINUOUS
 62
     7
100
AcDbLine
 10
180.1
 20
57.007661
 30
0.0
 11
180.925
 21
57.483975
 31
0.0
  0
LINE
  5
1B5
100
AcDbEntity
  8
LAY-1
  6
CONTINUOUS
 62
     7
100
AcDbLine
 10
182.35
 20
61.983975
 30
0.0
 11
182.35
 21
59.633975
 31
0.0
  0
LINE
  5
1B6
100
AcDbEntity
  8
LAY-1
  6
CONTINUOUS
 62
     7
100
AcDbLine
 10
182.35
 20
59.633975
 30
0.0
 11
187.725
 21
59.633975
 31
0.0
  0
LINE
  5
1B7
100
AcDbEntity
  8
LAY-1
  6
CONTINUOUS
 62
     7
100
AcDbLine
 10
187.725
 20
59.633975
 30
0.0
 11
187.725
 21
61.983975
 31
0.0
  0
LINE
  5
1B8
100
AcDbEntity
  8
LAY-1
  6
CONTINUOUS
 62
     7
100
AcDbLine
 10
186.1
 20
62.483975
 30
0.0
 11
186.1
 21
61.983975
 31
0.0
  0
LINE
  5
1B9
100
AcDbEntity
  8
LAY-1
  6
CONTINUOUS
 62
     7
100
AcDbLine
 10
187.1
 20
62.733975
 30
0.0
 11
186.1
 21
62.483975
 31
0.0
  0
LINE
  5
1BA
100
AcDbEntity
  8
LAY-1
  6
CONTINUOUS
 62
     7
100
AcDbLine
 10
189.1
 20
62.733975
 30
0.0
 11
187.1
 21
62.733975
 31
0.0
  0
ARC
  5
1BB
100
AcDbEntity
  8
LAY-1
  6
CONTINUOUS
 62
     7
100
AcDbCircle
 10
189.1
 20
62.233975
 30
0.0
 40
0.5
100
AcDbArc
 50
0.0
 51
90.0
  0
LINE
  5
1BC
100
AcDbEntity
  8
LAY-1
  6
CONTINUOUS
 62
     7
100
AcDbLine
 10
189.6
 20
62.233975
 30
0.0
 11
189.6
 21
58.883975
 31
0.0
  0
LINE
  5
1BD
100
AcDbEntity
  8
LAY-1
  6
CONTINUOUS
 62
     7
100
AcDbLine
 10
189.45
 20
58.733975
 30
0.0
 11
188.35
 21
58.733975
 31
0.0
  0
LINE
  5
1BE
100
AcDbEntity
  8
LAY-1
  6
CONTINUOUS
 62
     7
100
AcDbLine
 10
189.45
 20
58.733975
 30
0.0
 11
189.6
 21
58.883975
 31
0.0
  0
LINE
  5
1BF
100
AcDbEntity
  8
LAY-1
  6
CONTINUOUS
 62
     7
100
AcDbLine
 10
188.6
 20
61.733975
 30
0.0
 11
188.6
 21
59.233975
 31
0.0
  0
LINE
  5
1C0
100
AcDbEntity
  8
LAY-1
  6
CONTINUOUS
 62
     7
100
AcDbLine
 10
188.35
 20
61.983975
 30
0.0
 11
188.6
 21
61.733975
 31
0.0
  0
LINE
  5
1C1
100
AcDbEntity
  8
LAY-1
  6
CONTINUOUS
 62
     1
100
AcDbLine
 10
188.6
 20
61.983975
 30
0.0
 11
188.6
 21
61.733975
 31
0.0
  0
LINE
  5
1C2
100
AcDbEntity
  8
LAY-1
  6
CONTINUOUS
 62
     1
100
AcDbLine
 10
188.35
 20
61.983975
 30
0.0
 11
188.35
 21
58.983975
 31
0.0
  0
LINE
  5
1C3
100
AcDbEntity
  8
LAY-1
  6
CONTINUOUS
 62
     7
100
AcDbLine
 10
188.6
 20
59.233975
 30
0.0
 11
188.35
 21
58.983975
 31
0.0
  0
LINE
  5
1C4
100
AcDbEntity
  8
LAY-1
  6
CONTINUOUS
 62
     1
100
AcDbLine
 10
188.6
 20
59.233975
 30
0.0
 11
188.6
 21
58.733975
 31
0.0
  0
LINE
  5
1C5
100
AcDbEntity
  8
LAY-1
  6
CONTINUOUS
 62
     7
100
AcDbLine
 10
188.35
 20
58.733975
 30
0.0
 11
188.35
 21
58.983975
 31
0.0
  0
LINE
  5
1C6
100
AcDbEntity
  8
LAY-1
  6
CONTINUOUS
 62
     7
100
AcDbLine
 10
188.35
 20
58.983975
 30
0.0
 11
185.6
 21
58.983975
 31
0.0
  0
LINE
  5
1C7
100
AcDbEntity
  8
LAY-1
  6
CONTINUOUS
 62
     7
100
AcDbLine
 10
185.6
 20
58.983975
 30
0.0
 11
185.6
 21
56.983975
 31
0.0
  0
LINE
  5
1C8
100
AcDbEntity
  8
LAY-1
  6
CONTINUOUS
 62
     7
100
AcDbLine
 10
185.6
 20
56.983975
 30
0.0
 11
185.1
 21
56.483975
 31
0.0
  0
LINE
  5
1C9
100
AcDbEntity
  8
LAY-1
  6
CONTINUOUS
 62
     7
100
AcDbLine
 10
185.1
 20
56.483975
 30
0.0
 11
180.1
 21
56.483975
 31
0.0
  0
LINE
  5
1CA
100
AcDbEntity
  8
LAY-1
  6
CONTINUOUS
 62
     7
100
AcDbLine
 10
180.1
 20
62.383975
 30
0.0
 11
177.1
 21
62.383975
 31
0.0
  0
LINE
  5
1CB
100
AcDbEntity
  8
LAY-1
  6
CONTINUOUS
 62
     7
100
AcDbLine
 10
177.1
 20
62.383975
 30
0.0
 11
177.1
 21
61.983975
 31
0.0
  0
LINE
  5
1CC
100
AcDbEntity
  8
LAY-1
  6
CONTINUOUS
 62
     7
100
AcDbLine
 10
171.6
 20
61.983975
 30
0.0
 11
179.1
 21
61.983975
 31
0.0
  0
LINE
  5
1CD
100
AcDbEntity
  8
LAY-1
  6
CONTINUOUS
 62
     1
100
AcDbLine
 10
179.1
 20
58.233975
 30
0.0
 11
179.1
 21
59.058975
 31
0.0
  0
LINE
  5
1CE
100
AcDbEntity
  8
LAY-1
  6
CONTINUOUS
 62
     7
100
AcDbLine
 10
179.275
 20
57.483975
 30
0.0
 11
179.275
 21
58.648475
 31
0.0
  0
LINE
  5
1CF
100
AcDbEntity
  8
LAY-1
  6
CONTINUOUS
 62
     7
100
AcDbLine
 10
180.1
 20
58.233975
 30
0.0
 11
179.1
 21
58.233975
 31
0.0
  0
LINE
  5
1D0
100
AcDbEntity
  8
LAY-1
  6
CONTINUOUS
 62
     1
100
AcDbLine
 10
179.275
 20
57.930866
 30
0.0
 11
179.1
 21
58.233975
 31
0.0
  0
LINE
  5
1D1
100
AcDbEntity
  8
LAY-1
  6
CONTINUOUS
 62
     7
100
AcDbLine
 10
179.275
 20
57.483975
 30
0.0
 11
180.1
 21
57.483975
 31
0.0
  0
LINE
  5
1D2
100
AcDbEntity
  8
LAY-1
  6
CONTINUOUS
 62
     7
100
AcDbLine
 10
180.1
 20
57.007661
 30
0.0
 11
179.275
 21
57.483975
 31
0.0
  0
LINE
  5
1D3
100
AcDbEntity
  8
LAY-1
  6
CONTINUOUS
 62
     7
100
AcDbLine
 10
177.85
 20
61.983975
 30
0.0
 11
177.85
 21
59.633975
 31
0.0
  0
LINE
  5
1D4
100
AcDbEntity
  8
LAY-1
  6
CONTINUOUS
 62
     7
100
AcDbLine
 10
177.85
 20
59.633975
 30
0.0
 11
172.475
 21
59.633975
 31
0.0
  0
LINE
  5
1D5
100
AcDbEntity
  8
LAY-1
  6
CONTINUOUS
 62
     7
100
AcDbLine
 10
172.475
 20
59.633975
 30
0.0
 11
172.475
 21
61.983975
 31
0.0
  0
LINE
  5
1D6
100
AcDbEntity
  8
LAY-1
  6
CONTINUOUS
 62
     7
100
AcDbLine
 10
174.1
 20
62.483975
 30
0.0
 11
174.1
 21
61.983975
 31
0.0
  0
LINE
  5
1D7
100
AcDbEntity
  8
LAY-1
  6
CONTINUOUS
 62
     7
100
AcDbLine
 10
173.1
 20
62.733975
 30
0.0
 11
174.1
 21
62.483975
 31
0.0
  0
LINE
  5
1D8
100
AcDbEntity
  8
LAY-1
  6
CONTINUOUS
 62
     7
100
AcDbLine
 10
171.1
 20
62.733975
 30
0.0
 11
173.1
 21
62.733975
 31
0.0
  0
ARC
  5
1D9
100
AcDbEntity
  8
LAY-1
  6
CONTINUOUS
 62
     7
100
AcDbCircle
 10
171.1
 20
62.233975
 30
0.0
 40
0.5
100
AcDbArc
 50
90.0
 51
180.0
  0
LINE
  5
1DA
100
AcDbEntity
  8
LAY-1
  6
CONTINUOUS
 62
     7
100
AcDbLine
 10
170.6
 20
62.233975
 30
0.0
 11
170.6
 21
58.883975
 31
0.0
  0
LINE
  5
1DB
100
AcDbEntity
  8
LAY-1
  6
CONTINUOUS
 62
     7
100
AcDbLine
 10
170.75
 20
58.733975
 30
0.0
 11
171.85
 21
58.733975
 31
0.0
  0
LINE
  5
1DC
100
AcDbEntity
  8
LAY-1
  6
CONTINUOUS
 62
     7
100
AcDbLine
 10
170.75
 20
58.733975
 30
0.0
 11
170.6
 21
58.883975
 31
0.0
  0
LINE
  5
1DD
100
AcDbEntity
  8
LAY-1
  6
CONTINUOUS
 62
     7
100
AcDbLine
 10
171.6
 20
61.733975
 30
0.0
 11
171.6
 21
59.233975
 31
0.0
  0
LINE
  5
1DE
100
AcDbEntity
  8
LAY-1
  6
CONTINUOUS
 62
     7
100
AcDbLine
 10
171.85
 20
61.983975
 30
0.0
 11
171.6
 21
61.733975
 31
0.0
  0
LINE
  5
1DF
100
AcDbEntity
  8
LAY-1
  6
CONTINUOUS
 62
     1
100
AcDbLine
 10
171.6
 20
61.983975
 30
0.0
 11
171.6
 21
61.733975
 31
0.0
  0
LINE
  5
1E0
100
AcDbEntity
  8
LAY-1
  6
CONTINUOUS
 62
     1
100
AcDbLine
 10
171.85
 20
61.983975
 30
0.0
 11
171.85
 21
58.983975
 31
0.0
  0
LINE
  5
1E1
100
AcDbEntity
  8
LAY-1
  6
CONTINUOUS
 62
     7
100
AcDbLine
 10
171.6
 20
59.233975
 30
0.0
 11
171.85
 21
58.983975
 31
0.0
  0
LINE
  5
1E2
100
AcDbEntity
  8
LAY-1
  6
CONTINUOUS
 62
     1
100
AcDbLine
 10
171.6
 20
59.233975
 30
0.0
 11
171.6
 21
58.733975
 31
0.0
  0
LINE
  5
1E3
100
AcDbEntity
  8
LAY-1
  6
CONTINUOUS
 62
     7
100
AcDbLine
 10
171.85
 20
58.733975
 30
0.0
 11
171.85
 21
58.983975
 31
0.0
  0
LINE
  5
1E4
100
AcDbEntity
  8
LAY-1
  6
CONTINUOUS
 62
     7
100
AcDbLine
 10
171.85
 20
58.983975
 30
0.0
 11
174.6
 21
58.983975
 31
0.0
  0
LINE
  5
1E5
100
AcDbEntity
  8
LAY-1
  6
CONTINUOUS
 62
     7
100
AcDbLine
 10
174.6
 20
58.983975
 30
0.0
 11
174.6
 21
56.983975
 31
0.0
  0
LINE
  5
1E6
100
AcDbEntity
  8
LAY-1
  6
CONTINUOUS
 62
     7
100
AcDbLine
 10
174.6
 20
56.983975
 30
0.0
 11
175.1
 21
56.483975
 31
0.0
  0
LINE
  5
1E7
100
AcDbEntity
  8
LAY-1
  6
CONTINUOUS
 62
     7
100
AcDbLine
 10
175.1
 20
56.483975
 30
0.0
 11
180.1
 21
56.483975
 31
0.0
  0
LINE
  5
1E8
100
AcDbEntity
  8
LAY-1
  6
CONTINUOUS
 62
     7
100
AcDbLine
 10
188.1
 20
65.983975
 30
0.0
 11
188.1
 21
65.483975
 31
0.0
  0
LINE
  5
1E9
100
AcDbEntity
  8
LAY-1
  6
CONTINUOUS
 62
     7
100
AcDbLine
 10
184.35
 20
68.983975
 30
0.0
 11
184.35
 21
62.233521
 31
0.0
  0
LINE
  5
1EA
100
AcDbEntity
  8
LAY-1
  6
CONTINUOUS
 62
     7
100
AcDbLine
 10
185.35
 20
65.483975
 30
0.0
 11
185.35
 21
62.629967
 31
0.0
  0
LINE
  5
1EB
100
AcDbEntity
  8
LAY-1
  6
CONTINUOUS
 62
     1
100
AcDbLine
 10
187.194
 20
69.983975
 30
0.0
 11
187.194
 21
67.483975
 31
0.0
  0
LINE
  5
1EC
100
AcDbEntity
  8
LAY-1
  6
CONTINUOUS
 62
     7
100
AcDbLine
 10
187.6
 20
69.577975
 30
0.0
 11
187.194
 21
69.983975
 31
0.0
  0
LINE
  5
1ED
100
AcDbEntity
  8
LAY-1
  6
CONTINUOUS
 62
     7
100
AcDbLine
 10
187.194
 20
67.483975
 30
0.0
 11
187.194
 21
66.733975
 31
0.0
  0
LINE
  5
1EE
100
AcDbEntity
  8
LAY-1
  6
CONTINUOUS
 62
     7
100
AcDbLine
 10
187.194
 20
67.483975
 30
0.0
 11
187.6
 21
67.483975
 31
0.0
  0
LINE
  5
1EF
100
AcDbEntity
  8
LAY-1
  6
CONTINUOUS
 62
     7
100
AcDbLine
 10
187.194
 20
66.733975
 30
0.0
 11
187.35
 21
66.733975
 31
0.0
  0
LINE
  5
1F0
100
AcDbEntity
  8
LAY-1
  6
CONTINUOUS
 62
     7
100
AcDbLine
 10
185.35
 20
65.483975
 30
0.0
 11
188.1
 21
65.483975
 31
0.0
  0
LINE
  5
1F1
100
AcDbEntity
  8
LAY-1
  6
CONTINUOUS
 62
     7
100
AcDbLine
 10
184.776777
 20
62.056744
 30
0.0
 11
185.35
 21
62.629967
 31
0.0
  0
LINE
  5
1F2
100
AcDbEntity
  8
LAY-1
  6
EXLTYPE4
 62
     1
100
AcDbLine
 10
186.162178
 20
65.483975
 30
0.0
 11
186.162178
 21
63.442145
 31
0.0
  0
LINE
  5
1F3
100
AcDbEntity
  8
LAY-1
  6
EXLTYPE4
 62
     1
100
AcDbLine
 10
186.162178
 20
63.442145
 30
0.0
 11
185.35
 21
62.629967
 31
0.0
  0
ARC
  5
1F4
100
AcDbEntity
  8
LAY-1
  6
CONTINUOUS
 62
     7
100
AcDbCircle
 10
184.6
 20
62.233521
 30
0.0
 40
0.25
100
AcDbArc
 50
180.0
 51
315.0
  0
LINE
  5
1F5
100
AcDbEntity
  8
LAY-1
  6
CONTINUOUS
 62
     7
100
AcDbLine
 10
172.6
 20
69.577975
 30
0.0
 11
173.006
 21
69.983975
 31
0.0
  0
LINE
  5
1F6
100
AcDbEntity
  8
LAY-1
  6
CONTINUOUS
 62
     1
100
AcDbLine
 10
173.006
 20
69.983975
 30
0.0
 11
173.006
 21
67.483975
 31
0.0
  0
LINE
  5
1F7
100
AcDbEntity
  8
LAY-1
  6
CONTINUOUS
 62
     7
100
AcDbLine
 10
173.006
 20
67.483975
 30
0.0
 11
173.006
 21
66.733975
 31
0.0
  0
LINE
  5
1F8
100
AcDbEntity
  8
LAY-1
  6
CONTINUOUS
 62
     7
100
AcDbLine
 10
172.1
 20
65.983975
 30
0.0
 11
172.1
 21
65.483975
 31
0.0
  0
LINE
  5
1F9
100
AcDbEntity
  8
LAY-1
  6
CONTINUOUS
 62
     7
100
AcDbLine
 10
173.006
 20
67.483975
 30
0.0
 11
172.6
 21
67.483975
 31
0.0
  0
LINE
  5
1FA
100
AcDbEntity
  8
LAY-1
  6
CONTINUOUS
 62
     7
100
AcDbLine
 10
173.006
 20
66.733975
 30
0.0
 11
172.85
 21
66.733975
 31
0.0
  0
LINE
  5
1FB
100
AcDbEntity
  8
LAY-1
  6
CONTINUOUS
 62
     7
100
AcDbLine
 10
174.85
 20
65.483975
 30
0.0
 11
172.1
 21
65.483975
 31
0.0
  0
LINE
  5
1FC
100
AcDbEntity
  8
LAY-1
  6
CONTINUOUS
 62
     7
100
AcDbLine
 10
175.423223
 20
62.056744
 30
0.0
 11
174.85
 21
62.629967
 31
0.0
  0
ARC
  5
1FD
100
AcDbEntity
  8
LAY-1
  6
CONTINUOUS
 62
     7
100
AcDbCircle
 10
175.6
 20
62.233521
 30
0.0
 40
0.25
100
AcDbArc
 50
225.0
 51
0.0
  0
LINE
  5
1FE
100
AcDbEntity
  8
LAY-1
  6
CONTINUOUS
 62
     7
100
AcDbLine
 10
175.85
 20
68.983975
 30
0.0
 11
175.85
 21
62.233521
 31
0.0
  0
LINE
  5
1FF
100
AcDbEntity
  8
LAY-1
  6
CONTINUOUS
 62
     7
100
AcDbLine
 10
174.85
 20
65.483975
 30
0.0
 11
174.85
 21
62.629967
 31
0.0
  0
LINE
  5
200
100
AcDbEntity
  8
LAY-1
  6
CONTINUOUS
 62
     7
100
AcDbLine
 10
185.35
 20
69.983975
 30
0.0
 11
184.35
 21
68.983975
 31
0.0
  0
LINE
  5
201
100
AcDbEntity
  8
LAY-1
  6
CONTINUOUS
 62
     7
100
AcDbLine
 10
174.85
 20
69.983975
 30
0.0
 11
175.85
 21
68.983975
 31
0.0
  0
LINE
  5
202
100
AcDbEntity
  8
LAY-1
  6
CONTINUOUS
 62
     7
100
AcDbLine
 10
184.35
 20
68.983975
 30
0.0
 11
181.1
 21
68.983975
 31
0.0
  0
LINE
  5
203
100
AcDbEntity
  8
LAY-1
  6
EXLTYPE4
 62
     1
100
AcDbLine
 10
174.037822
 20
63.442145
 30
0.0
 11
174.85
 21
62.629967
 31
0.0
  0
LINE
  5
204
100
AcDbEntity
  8
LAY-1
  6
EXLTYPE4
 62
     1
100
AcDbLine
 10
174.037822
 20
65.483975
 30
0.0
 11
174.037822
 21
63.442145
 31
0.0
  0
LINE
  5
205
100
AcDbEntity
  8
LAY-1
  6
CONTINUOUS
 62
     7
100
AcDbLine
 10
188.1
 20
65.983975
 30
0.0
 11
189.1
 21
65.983975
 31
0.0
  0
LINE
  5
206
100
AcDbEntity
  8
LAY-1
  6
CONTINUOUS
 62
     7
100
AcDbLine
 10
173.006
 20
66.883975
 30
0.0
 11
173.0
 21
66.883975
 31
0.0
  0
LINE
  5
207
100
AcDbEntity
  8
LAY-1
  6
CONTINUOUS
 62
     1
100
AcDbLine
 10
180.9105
 20
58.633975
 30
0.0
 11
180.9105
 21
61.383975
 31
0.0
  0
LINE
  5
208
100
AcDbEntity
  8
LAY-1
  6
CONTINUOUS
 62
     1
100
AcDbLine
 10
180.9105
 20
61.383975
 30
0.0
 11
181.1
 21
61.712198
 31
0.0
  0
LINE
  5
209
100
AcDbEntity
  8
LAY-1
  6
CONTINUOUS
 62
     1
100
AcDbLine
 10
179.2895
 20
58.633975
 30
0.0
 11
179.2895
 21
61.383975
 31
0.0
  0
LINE
  5
20A
100
AcDbEntity
  8
LAY-1
  6
CONTINUOUS
 62
     1
100
AcDbLine
 10
179.2895
 20
61.383975
 30
0.0
 11
179.1
 21
61.712198
 31
0.0
  0
LINE
  5
20B
100
AcDbEntity
  8
LAY-1
  6
CONTINUOUS
 62
     7
100
AcDbLine
 10
180.9105
 20
58.633975
 30
0.0
 11
180.1
 21
58.633975
 31
0.0
  0
LINE
  5
20C
100
AcDbEntity
  8
LAY-1
  6
CONTINUOUS
 62
     7
100
AcDbLine
 10
180.1
 20
62.633975
 30
0.0
 11
181.6
 21
62.633975
 31
0.0
  0
LINE
  5
20D
100
AcDbEntity
  8
LAY-1
  6
CONTINUOUS
 62
     7
100
AcDbLine
 10
181.6
 20
62.633975
 30
0.0
 11
181.6
 21
62.383975
 31
0.0
  0
LINE
  5
20E
100
AcDbEntity
  8
LAY-1
  6
CONTINUOUS
 62
     7
100
AcDbLine
 10
181.1
 20
58.823475
 30
0.0
 11
181.1
 21
62.383975
 31
0.0
  0
LINE
  5
20F
100
AcDbEntity
  8
LAY-1
  6
CONTINUOUS
 62
     7
100
AcDbLine
 10
181.1
 20
61.383975
 30
0.0
 11
180.1
 21
61.383975
 31
0.0
  0
LINE
  5
210
100
AcDbEntity
  8
LAY-1
  6
CONTINUOUS
 62
     7
100
AcDbLine
 10
180.9105
 20
58.633975
 30
0.0
 11
181.1
 21
58.823475
 31
0.0
  0
LINE
  5
211
100
AcDbEntity
  8
LAY-1
  6
CONTINUOUS
 62
     7
100
AcDbLine
 10
181.6
 20
77.383975
 30
0.0
 11
181.1
 21
75.517949
 31
0.0
  0
LINE
  5
212
100
AcDbEntity
  8
LAY-1
  6
CONTINUOUS
 62
     7
100
AcDbLine
 10
181.1
 20
75.517949
 30
0.0
 11
180.1
 21
75.517949
 31
0.0
  0
LINE
  5
213
100
AcDbEntity
  8
LAY-1
  6
CONTINUOUS
 62
     7
100
AcDbLine
 10
181.1
 20
75.517949
 30
0.0
 11
181.1
 21
63.5
 31
0.0
  0
LINE
  5
214
100
AcDbEntity
  8
LAY-1
  6
CONTINUOUS
 62
     7
100
AcDbLine
 10
181.6
 20
62.633975
 30
0.0
 11
181.07676
 21
63.540253
 31
0.0
  0
LINE
  5
215
100
AcDbEntity
  8
LAY-1
  6
CONTINUOUS
 62
     7
100
AcDbLine
 10
181.1
 20
63.5
 30
0.0
 11
180.05
 21
63.5
 31
0.0
  0
LINE
  5
216
100
AcDbEntity
  8
LAY-1
  6
CONTINUOUS
 62
     7
100
AcDbLine
 10
180.1
 20
62.633975
 30
0.0
 11
178.6
 21
62.633975
 31
0.0
  0
LINE
  5
217
100
AcDbEntity
  8
LAY-1
  6
CONTINUOUS
 62
     7
100
AcDbLine
 10
178.6
 20
62.633975
 30
0.0
 11
178.6
 21
62.383975
 31
0.0
  0
LINE
  5
218
100
AcDbEntity
  8
LAY-1
  6
CONTINUOUS
 62
     7
100
AcDbLine
 10
178.6
 20
77.383975
 30
0.0
 11
181.6
 21
77.383975
 31
0.0
  0
LINE
  5
219
100
AcDbEntity
  8
LAY-1
  6
CONTINUOUS
 62
     7
100
AcDbLine
 10
179.2895
 20
58.633975
 30
0.0
 11
179.1
 21
58.823475
 31
0.0
  0
LINE
  5
21A
100
AcDbEntity
  8
LAY-1
  6
CONTINUOUS
 62
     7
100
AcDbLine
 10
179.2895
 20
58.633975
 30
0.0
 11
180.1
 21
58.633975
 31
0.0
  0
LINE
  5
21B
100
AcDbEntity
  8
LAY-1
  6
CONTINUOUS
 62
     7
100
AcDbLine
 10
179.1
 20
58.823475
 30
0.0
 11
179.1
 21
62.383975
 31
0.0
  0
LINE
  5
21C
100
AcDbEntity
  8
LAY-1
  6
CONTINUOUS
 62
     7
100
AcDbLine
 10
178.6
 20
77.383975
 30
0.0
 11
179.1
 21
75.517949
 31
0.0
  0
LINE
  5
21D
100
AcDbEntity
  8
LAY-1
  6
CONTINUOUS
 62
     7
100
AcDbLine
 10
179.1
 20
75.517949
 30
0.0
 11
180.1
 21
75.517949
 31
0.0
  0
LINE
  5
21E
100
AcDbEntity
  8
LAY-1
  6
CONTINUOUS
 62
     7
100
AcDbLine
 10
179.1
 20
61.383975
 30
0.0
 11
180.1
 21
61.383975
 31
0.0
  0
LINE
  5
21F
100
AcDbEntity
  8
LAY-1
  6
CONTINUOUS
 62
     7
100
AcDbLine
 10
178.6
 20
62.633975
 30
0.0
 11
179.12324
 21
63.540253
 31
0.0
  0
LINE
  5
220
100
AcDbEntity
  8
LAY-1
  6
CONTINUOUS
 62
     7
100
AcDbLine
 10
179.1
 20
63.5
 30
0.0
 11
180.15
 21
63.5
 31
0.0
  0
LINE
  5
221
100
AcDbEntity
  8
LAY-1
  6
CONTINUOUS
 62
     7
100
AcDbLine
 10
179.1
 20
75.517949
 30
0.0
 11
179.1
 21
63.5
 31
0.0
  0
LINE
  5
222
100
AcDbEntity
  8
LAY-1
  6
CONTINUOUS
 62
     7
100
AcDbLine
 10
181.6
 20
91.383975
 30
0.0
 11
181.6
 21
77.383975
 31
0.0
  0
LINE
  5
223
100
AcDbEntity
  8
LAY-1
  6
CONTINUOUS
 62
     7
100
AcDbLine
 10
178.6
 20
77.383975
 30
0.0
 11
178.6
 21
91.383975
 31
0.0
  0
LINE
  5
224
100
AcDbEntity
  8
LAY-1
  6
CONTINUOUS
 62
     7
100
AcDbLine
 10
179.466025
 20
91.883975
 30
0.0
 11
180.733975
 21
91.883975
 31
0.0
  0
LINE
  5
225
100
AcDbEntity
  8
LAY-1
  6
CONTINUOUS
 62
     7
100
AcDbLine
 10
179.1
 20
68.983975
 30
0.0
 11
175.85
 21
68.983975
 31
0.0
  0
ARC
  5
226
100
AcDbEntity
  8
LAY-1
  6
CONTINUOUS
 62
     7
100
AcDbCircle
 10
180.1
 20
-89.742908
 30
0.0
 40
175.0
100
AcDbArc
 50
90.818539
 51
94.989603
  0
ARC
  5
227
100
AcDbEntity
  8
LAY-1
  6
CONTINUOUS
 62
     7
100
AcDbCircle
 10
181.85
 20
77.633975
 30
0.0
 40
0.25
100
AcDbArc
 50
180.0
 51
270.0
  0
ARC
  5
228
100
AcDbEntity
  8
LAY-1
  6
CONTINUOUS
 62
     7
100
AcDbCircle
 10
178.35
 20
77.633975
 30
0.0
 40
0.25
100
AcDbArc
 50
270.0
 51
0.0
  0
LINE
  5
229
100
AcDbEntity
  8
LAY-1
  6
CONTINUOUS
 62
     7
100
AcDbLine
 10
181.603954
 20
77.589686
 30
0.0
 11
181.6
 21
77.589686
 31
0.0
  0
LINE
  5
22A
100
AcDbEntity
  8
LAY-1
  6
CONTINUOUS
 62
     7
100
AcDbLine
 10
178.6
 20
91.383975
 30
0.0
 11
181.6
 21
91.383975
 31
0.0
  0
LINE
  5
22B
100
AcDbEntity
  8
LAY-1
  6
CONTINUOUS
 62
     7
100
AcDbLine
 10
177.867949
 20
77.383975
 30
0.0
 11
178.6
 21
77.383975
 31
0.0
  0
LINE
  5
22C
100
AcDbEntity
  8
LAY-1
  6
CONTINUOUS
 62
     7
100
AcDbLine
 10
182.6
 20
107.883975
 30
0.0
 11
182.6
 21
97.033975
 31
0.0
  0
LINE
  5
22D
100
AcDbEntity
  8
LAY-1
  6
CONTINUOUS
 62
     7
100
AcDbLine
 10
177.6
 20
107.883975
 30
0.0
 11
177.6
 21
97.033975
 31
0.0
  0
LINE
  5
22E
100
AcDbEntity
  8
LAY-1
  6
CONTINUOUS
 62
     7
100
AcDbLine
 10
180.1
 20
92.25
 30
0.0
 11
178.6
 21
91.383975
 31
0.0
  0
LINE
  5
22F
100
AcDbEntity
  8
LAY-1
  6
CONTINUOUS
 62
     7
100
AcDbLine
 10
181.6
 20
91.383975
 30
0.0
 11
180.1
 21
92.25
 31
0.0
  0
LINE
  5
230
100
AcDbEntity
  8
LAY-1
  6
CONTINUOUS
 62
     7
100
AcDbLine
 10
182.6
 20
78.383975
 30
0.0
 11
182.332051
 21
77.383975
 31
0.0
  0
LINE
  5
231
100
AcDbEntity
  8
LAY-1
  6
CONTINUOUS
 62
     7
100
AcDbLine
 10
177.867949
 20
77.383975
 30
0.0
 11
177.6
 21
78.383975
 31
0.0
  0
LINE
  5
232
100
AcDbEntity
  8
LAY-1
  6
CONTINUOUS
 62
     7
100
AcDbLine
 10
182.6
 20
97.033975
 30
0.0
 11
182.6
 21
78.383975
 31
0.0
  0
LINE
  5
233
100
AcDbEntity
  8
LAY-1
  6
CONTINUOUS
 62
     7
100
AcDbLine
 10
177.6
 20
97.033975
 30
0.0
 11
177.6
 21
78.383975
 31
0.0
  0
ARC
  5
234
100
AcDbEntity
  8
LAY-1
  6
CONTINUOUS
 62
     7
100
AcDbCircle
 10
180.1
 20
104.383975
 30
0.0
 40
7.5
100
AcDbArc
 50
73.54075
 51
106.45925
  0
LINE
  5
235
100
AcDbEntity
  8
LAY-1
  6
CONTINUOUS
 62
     7
100
AcDbLine
 10
177.975
 20
111.576636
 30
0.0
 11
177.975
 21
110.586413
 31
0.0
  0
ARC
  5
236
100
AcDbEntity
  8
LAY-1
  6
CONTINUOUS
 62
     7
100
AcDbCircle
 10
180.1
 20
117.779074
 30
0.0
 40
7.5
100
AcDbArc
 50
253.54075
 51
259.455069
  0
ARC
  5
237
100
AcDbEntity
  8
LAY-1
  6
CONTINUOUS
 62
     7
100
AcDbCircle
 10
178.7
 20
110.25827
 30
0.0
 40
0.15
100
AcDbArc
 50
0.0
 51
79.455069
  0
LINE
  5
238
100
AcDbEntity
  8
LAY-1
  6
CONTINUOUS
 62
     7
100
AcDbLine
 10
178.85
 20
110.25827
 30
0.0
 11
178.85
 21
108.033975
 31
0.0
  0
ARC
  5
239
100
AcDbEntity
  8
LAY-1
  6
CONTINUOUS
 62
     7
100
AcDbCircle
 10
178.7
 20
108.033975
 30
0.0
 40
0.15
100
AcDbArc
 50
270.0
 51
0.0
  0
LINE
  5
23A
100
AcDbEntity
  8
LAY-1
  6
CONTINUOUS
 62
     7
100
AcDbLine
 10
178.7
 20
107.883975
 30
0.0
 11
177.6
 21
107.883975
 31
0.0
  0
LINE
  5
23B
100
AcDbEntity
  8
LAY-1
  6
CONTINUOUS
 62
     7
100
AcDbLine
 10
182.225
 20
111.576636
 30
0.0
 11
182.225
 21
110.586413
 31
0.0
  0
ARC
  5
23C
100
AcDbEntity
  8
LAY-1
  6
CONTINUOUS
 62
     7
100
AcDbCircle
 10
180.1
 20
117.779074
 30
0.0
 40
7.5
100
AcDbArc
 50
280.544931
 51
286.45925
  0
ARC
  5
23D
100
AcDbEntity
  8
LAY-1
  6
CONTINUOUS
 62
     7
100
AcDbCircle
 10
181.5
 20
110.25827
 30
0.0
 40
0.15
100
AcDbArc
 50
100.544931
 51
180.0
  0
LINE
  5
23E
100
AcDbEntity
  8
LAY-1
  6
CONTINUOUS
 62
     7
100
AcDbLine
 10
181.35
 20
110.25827
 30
0.0
 11
181.35
 21
108.033975
 31
0.0
  0
ARC
  5
23F
100
AcDbEntity
  8
LAY-1
  6
CONTINUOUS
 62
     7
100
AcDbCircle
 10
181.5
 20
108.033975
 30
0.0
 40
0.15
100
AcDbArc
 50
180.0
 51
270.0
  0
LINE
  5
240
100
AcDbEntity
  8
LAY-1
  6
CONTINUOUS
 62
     7
100
AcDbLine
 10
181.5
 20
107.883975
 30
0.0
 11
182.6
 21
107.883975
 31
0.0
  0
LINE
  5
241
100
AcDbEntity
  8
LAY-1
  6
CONTINUOUS
 62
     7
100
AcDbLine
 10
181.6
 20
77.383975
 30
0.0
 11
182.332051
 21
77.383975
 31
0.0
  0
LINE
  5
242
100
AcDbEntity
  8
LAY-1
  6
CONTINUOUS
 62
     7
100
AcDbLine
 10
178.6
 20
77.589686
 30
0.0
 11
178.596046
 21
77.589686
 31
0.0
  0
LINE
  5
243
100
AcDbEntity
  8
LAY-1
  6
CONTINUOUS
 62
     7
100
AcDbLine
 10
188.85
 20
102.983975
 30
0.0
 11
214.1
 21
102.983975
 31
0.0
  0
LINE
  5
244
100
AcDbEntity
  8
LAY-1
  6
CONTINUOUS
 62
     7
100
AcDbLine
 10
185.584828
 20
104.633975
 30
0.0
 11
182.6
 21
104.633975
 31
0.0
  0
LINE
  5
245
100
AcDbEntity
  8
LAY-1
  6
CONTINUOUS
 62
     7
100
AcDbLine
 10
185.584828
 20
104.633975
 30
0.0
 11
185.584828
 21
103.133975
 31
0.0
  0
LINE
  5
246
100
AcDbEntity
  8
LAY-1
  6
CONTINUOUS
 62
     7
100
AcDbLine
 10
184.6
 20
100.133975
 30
0.0
 11
184.6
 21
103.133975
 31
0.0
  0
LINE
  5
247
100
AcDbEntity
  8
LAY-1
  6
CONTINUOUS
 62
     7
100
AcDbLine
 10
184.725
 20
102.133975
 30
0.0
 11
184.725
 21
103.133975
 31
0.0
  0
LINE
  5
248
100
AcDbEntity
  8
LAY-1
  6
CONTINUOUS
 62
     7
100
AcDbLine
 10
184.35
 20
101.758975
 30
0.0
 11
184.725
 21
102.133975
 31
0.0
  0
LINE
  5
249
100
AcDbEntity
  8
LAY-1
  6
CONTINUOUS
 62
     7
100
AcDbLine
 10
184.35
 20
102.133975
 30
0.0
 11
184.6
 21
102.133975
 31
0.0
  0
LINE
  5
24A
100
AcDbEntity
  8
LAY-1
  6
CONTINUOUS
 62
     1
100
AcDbLine
 10
184.35
 20
102.133975
 30
0.0
 11
184.6
 21
102.566987
 31
0.0
  0
LINE
  5
24B
100
AcDbEntity
  8
LAY-1
  6
CONTINUOUS
 62
     1
100
AcDbLine
 10
184.35
 20
99.883975
 30
0.0
 11
184.35
 21
102.133975
 31
0.0
  0
LINE
  5
24C
100
AcDbEntity
  8
LAY-1
  6
CONTINUOUS
 62
     7
100
AcDbLine
 10
184.6
 20
102.133975
 30
0.0
 11
184.725
 21
102.133975
 31
0.0
  0
LINE
  5
24D
100
AcDbEntity
  8
LAY-1
  6
CONTINUOUS
 62
     7
100
AcDbLine
 10
183.85
 20
99.383975
 30
0.0
 11
184.6
 21
100.133975
 31
0.0
  0
LINE
  5
24E
100
AcDbEntity
  8
LAY-1
  6
CONTINUOUS
 62
     1
100
AcDbLine
 10
184.6
 20
99.133975
 30
0.0
 11
184.6
 21
100.133975
 31
0.0
  0
LINE
  5
24F
100
AcDbEntity
  8
LAY-1
  6
CONTINUOUS
 62
     1
100
AcDbLine
 10
184.325
 20
98.858975
 30
0.0
 11
184.6
 21
99.133975
 31
0.0
  0
LINE
  5
250
100
AcDbEntity
  8
LAY-1
  6
CONTINUOUS
 62
     7
100
AcDbLine
 10
184.325
 20
98.858975
 30
0.0
 11
184.325
 21
99.883975
 31
0.0
  0
LINE
  5
251
100
AcDbEntity
  8
LAY-1
  6
CONTINUOUS
 62
     7
100
AcDbLine
 10
184.1
 20
93.133975
 30
0.0
 11
184.1
 21
98.633975
 31
0.0
  0
LINE
  5
252
100
AcDbEntity
  8
LAY-1
  6
CONTINUOUS
 62
     7
100
AcDbLine
 10
184.1
 20
98.633975
 30
0.0
 11
184.325
 21
98.858975
 31
0.0
  0
LINE
  5
253
100
AcDbEntity
  8
LAY-1
  6
CONTINUOUS
 62
     7
100
AcDbLine
 10
183.85
 20
97.383975
 30
0.0
 11
183.85
 21
99.383975
 31
0.0
  0
LINE
  5
254
100
AcDbEntity
  8
LAY-1
  6
CONTINUOUS
 62
     7
100
AcDbLine
 10
183.85
 20
98.633975
 30
0.0
 11
184.1
 21
98.633975
 31
0.0
  0
LINE
  5
255
100
AcDbEntity
  8
LAY-1
  6
CONTINUOUS
 62
     7
100
AcDbLine
 10
182.6
 20
97.383975
 30
0.0
 11
183.85
 21
97.383975
 31
0.0
  0
LINE
  5
256
100
AcDbEntity
  8
LAY-1
  6
CONTINUOUS
 62
     7
100
AcDbLine
 10
182.6
 20
96.433975
 30
0.0
 11
184.1
 21
96.433975
 31
0.0
  0
LINE
  5
257
100
AcDbEntity
  8
LAY-1
  6
CONTINUOUS
 62
     7
100
AcDbLine
 10
184.1
 20
95.433975
 30
0.0
 11
182.6
 21
95.433975
 31
0.0
  0
LINE
  5
258
100
AcDbEntity
  8
LAY-1
  6
CONTINUOUS
 62
     7
100
AcDbLine
 10
183.9
 20
94.283975
 30
0.0
 11
183.0
 21
95.183975
 31
0.0
  0
CIRCLE
  5
259
100
AcDbEntity
  8
LAY-1
  6
CONTINUOUS
 62
     7
100
AcDbCircle
 10
182.980761
 20
94.664736
 30
0.0
 40
0.380761
  0
LINE
  5
25A
100
AcDbEntity
  8
LAY-1
  6
CONTINUOUS
 62
     7
100
AcDbLine
 10
183.0
 20
95.183975
 30
0.0
 11
182.6
 21
95.183975
 31
0.0
  0
LINE
  5
25B
100
AcDbEntity
  8
LAY-1
  6
CONTINUOUS
 62
     7
100
AcDbLine
 10
184.1
 20
94.283975
 30
0.0
 11
182.6
 21
94.283975
 31
0.0
  0
LINE
  5
25C
100
AcDbEntity
  8
LAY-1
  6
CONTINUOUS
 62
     7
100
AcDbLine
 10
183.9
 20
93.133975
 30
0.0
 11
183.0
 21
94.033975
 31
0.0
  0
CIRCLE
  5
25D
100
AcDbEntity
  8
LAY-1
  6
CONTINUOUS
 62
     7
100
AcDbCircle
 10
182.980761
 20
93.514736
 30
0.0
 40
0.380761
  0
LINE
  5
25E
100
AcDbEntity
  8
LAY-1
  6
CONTINUOUS
 62
     7
100
AcDbLine
 10
183.0
 20
94.033975
 30
0.0
 11
182.6
 21
94.033975
 31
0.0
  0
LINE
  5
25F
100
AcDbEntity
  8
LAY-1
  6
CONTINUOUS
 62
     7
100
AcDbLine
 10
182.6
 20
93.133975
 30
0.0
 11
184.1
 21
93.133975
 31
0.0
  0
LINE
  5
260
100
AcDbEntity
  8
LAY-1
  6
CONTINUOUS
 62
     7
100
AcDbLine
 10
174.615172
 20
104.633975
 30
0.0
 11
177.6
 21
104.633975
 31
0.0
  0
LINE
  5
261
100
AcDbEntity
  8
LAY-1
  6
CONTINUOUS
 62
     7
100
AcDbLine
 10
174.615172
 20
104.633975
 30
0.0
 11
174.615172
 21
103.133975
 31
0.0
  0
LINE
  5
262
100
AcDbEntity
  8
LAY-1
  6
CONTINUOUS
 62
     7
100
AcDbLine
 10
175.6
 20
100.133975
 30
0.0
 11
175.6
 21
103.133975
 31
0.0
  0
LINE
  5
263
100
AcDbEntity
  8
LAY-1
  6
CONTINUOUS
 62
     7
100
AcDbLine
 10
175.475
 20
102.133975
 30
0.0
 11
175.475
 21
103.133975
 31
0.0
  0
LINE
  5
264
100
AcDbEntity
  8
LAY-1
  6
CONTINUOUS
 62
     7
100
AcDbLine
 10
175.85
 20
102.133975
 30
0.0
 11
175.6
 21
102.133975
 31
0.0
  0
LINE
  5
265
100
AcDbEntity
  8
LAY-1
  6
CONTINUOUS
 62
     1
100
AcDbLine
 10
175.85
 20
102.133975
 30
0.0
 11
175.6
 21
102.566987
 31
0.0
  0
LINE
  5
266
100
AcDbEntity
  8
LAY-1
  6
CONTINUOUS
 62
     1
100
AcDbLine
 10
175.85
 20
99.883975
 30
0.0
 11
175.85
 21
102.133975
 31
0.0
  0
LINE
  5
267
100
AcDbEntity
  8
LAY-1
  6
CONTINUOUS
 62
     7
100
AcDbLine
 10
175.6
 20
102.133975
 30
0.0
 11
175.475
 21
102.133975
 31
0.0
  0
LINE
  5
268
100
AcDbEntity
  8
LAY-1
  6
CONTINUOUS
 62
     7
100
AcDbLine
 10
176.35
 20
99.383975
 30
0.0
 11
175.6
 21
100.133975
 31
0.0
  0
LINE
  5
269
100
AcDbEntity
  8
LAY-1
  6
CONTINUOUS
 62
     1
100
AcDbLine
 10
175.875
 20
98.858975
 30
0.0
 11
175.6
 21
99.133975
 31
0.0
  0
LINE
  5
26A
100
AcDbEntity
  8
LAY-1
  6
CONTINUOUS
 62
     7
100
AcDbLine
 10
175.875
 20
98.858975
 30
0.0
 11
175.875
 21
99.883975
 31
0.0
  0
LINE
  5
26B
100
AcDbEntity
  8
LAY-1
  6
CONTINUOUS
 62
     7
100
AcDbLine
 10
176.1
 20
93.133975
 30
0.0
 11
176.1
 21
98.633975
 31
0.0
  0
LINE
  5
26C
100
AcDbEntity
  8
LAY-1
  6
CONTINUOUS
 62
     7
100
AcDbLine
 10
176.1
 20
98.633975
 30
0.0
 11
175.875
 21
98.858975
 31
0.0
  0
LINE
  5
26D
100
AcDbEntity
  8
LAY-1
  6
CONTINUOUS
 62
     7
100
AcDbLine
 10
176.35
 20
97.383975
 30
0.0
 11
176.35
 21
99.383975
 31
0.0
  0
LINE
  5
26E
100
AcDbEntity
  8
LAY-1
  6
CONTINUOUS
 62
     7
100
AcDbLine
 10
176.35
 20
98.633975
 30
0.0
 11
176.1
 21
98.633975
 31
0.0
  0
LINE
  5
26F
100
AcDbEntity
  8
LAY-1
  6
CONTINUOUS
 62
     7
100
AcDbLine
 10
177.6
 20
97.383975
 30
0.0
 11
176.35
 21
97.383975
 31
0.0
  0
LINE
  5
270
100
AcDbEntity
  8
LAY-1
  6
CONTINUOUS
 62
     7
100
AcDbLine
 10
177.6
 20
96.433975
 30
0.0
 11
176.1
 21
96.433975
 31
0.0
  0
LINE
  5
271
100
AcDbEntity
  8
LAY-1
  6
CONTINUOUS
 62
     7
100
AcDbLine
 10
176.1
 20
95.433975
 30
0.0
 11
177.6
 21
95.433975
 31
0.0
  0
LINE
  5
272
100
AcDbEntity
  8
LAY-1
  6
CONTINUOUS
 62
     7
100
AcDbLine
 10
176.3
 20
94.283975
 30
0.0
 11
177.2
 21
95.183975
 31
0.0
  0
CIRCLE
  5
273
100
AcDbEntity
  8
LAY-1
  6
CONTINUOUS
 62
     7
100
AcDbCircle
 10
177.219239
 20
94.664736
 30
0.0
 40
0.380761
  0
LINE
  5
274
100
AcDbEntity
  8
LAY-1
  6
CONTINUOUS
 62
     7
100
AcDbLine
 10
177.2
 20
95.183975
 30
0.0
 11
177.6
 21
95.183975
 31
0.0
  0
LINE
  5
275
100
AcDbEntity
  8
LAY-1
  6
CONTINUOUS
 62
     7
100
AcDbLine
 10
176.1
 20
94.283975
 30
0.0
 11
177.6
 21
94.283975
 31
0.0
  0
LINE
  5
276
100
AcDbEntity
  8
LAY-1
  6
CONTINUOUS
 62
     7
100
AcDbLine
 10
176.3
 20
93.133975
 30
0.0
 11
177.2
 21
94.033975
 31
0.0
  0
CIRCLE
  5
277
100
AcDbEntity
  8
LAY-1
  6
CONTINUOUS
 62
     7
100
AcDbCircle
 10
177.219239
 20
93.514736
 30
0.0
 40
0.380761
  0
LINE
  5
278
100
AcDbEntity
  8
LAY-1
  6
CONTINUOUS
 62
     7
100
AcDbLine
 10
177.2
 20
94.033975
 30
0.0
 11
177.6
 21
94.033975
 31
0.0
  0
LINE
  5
279
100
AcDbEntity
  8
LAY-1
  6
CONTINUOUS
 62
     7
100
AcDbLine
 10
177.6
 20
93.133975
 30
0.0
 11
176.1
 21
93.133975
 31
0.0
  0
LINE
  5
27A
100
AcDbEntity
  8
LAY-1
  6
CONTINUOUS
 62
     7
100
AcDbLine
 10
175.85
 20
101.758975
 30
0.0
 11
175.475
 21
102.133975
 31
0.0
  0
LINE
  5
27B
100
AcDbEntity
  8
LAY-1
  6
CONTINUOUS
 62
     1
100
AcDbLine
 10
175.6
 20
99.133975
 30
0.0
 11
175.6
 21
100.133975
 31
0.0
  0
LINE
  5
27C
100
AcDbEntity
  8
LAY-1
  6
CONTINUOUS
 62
     7
100
AcDbLine
 10
180.1
 20
119.497114
 30
0.0
 11
174.1
 21
119.497114
 31
0.0
  0
LINE
  5
27D
100
AcDbEntity
  8
LAY-1
  6
CONTINUOUS
 62
     7
100
AcDbLine
 10
174.1
 20
119.497114
 30
0.0
 11
174.1
 21
118.883975
 31
0.0
  0
LINE
  5
27E
100
AcDbEntity
  8
LAY-1
  6
CONTINUOUS
 62
     7
100
AcDbLine
 10
174.1
 20
119.497114
 30
0.0
 11
176.85
 21
120.233975
 31
0.0
  0
LINE
  5
27F
100
AcDbEntity
  8
LAY-1
  6
CONTINUOUS
 62
     7
100
AcDbLine
 10
174.615172
 20
120.233975
 30
0.0
 11
180.1
 21
120.233975
 31
0.0
  0
LINE
  5
280
100
AcDbEntity
  8
LAY-1
  6
CONTINUOUS
 62
     7
100
AcDbLine
 10
177.357586
 20
124.809722
 30
0.0
 11
177.357586
 21
120.233975
 31
0.0
  0
LINE
  5
281
100
AcDbEntity
  8
LAY-1
  6
CONTINUOUS
 62
     7
100
AcDbLine
 10
174.615172
 20
124.809722
 30
0.0
 11
174.615172
 21
120.233975
 31
0.0
  0
ARC
  5
282
100
AcDbEntity
  8
LAY-1
  6
CONTINUOUS
 62
     7
100
AcDbCircle
 10
175.986379
 20
122.805943
 30
0.0
 40
2.428032
100
AcDbArc
 50
55.615753
 51
124.384247
  0
LINE
  5
283
100
AcDbEntity
  8
LAY-1
  6
CONTINUOUS
 62
     7
100
AcDbLine
 10
180.1
 20
125.233975
 30
0.0
 11
175.35
 21
125.233975
 31
0.0
  0
LINE
  5
284
100
AcDbEntity
  8
LAY-1
  6
CONTINUOUS
 62
     7
100
AcDbLine
 10
175.35
 20
125.233975
 30
0.0
 11
174.615172
 21
124.809722
 31
0.0
  0
ARC
  5
285
100
AcDbEntity
  8
LAY-1
  6
CONTINUOUS
 62
     7
100
AcDbCircle
 10
180.1
 20
116.158227
 30
0.0
 40
9.075747
100
AcDbArc
 50
90.0
 51
107.587954
  0
ARC
  5
286
100
AcDbEntity
  8
LAY-1
  6
CONTINUOUS
 62
     7
100
AcDbCircle
 10
180.1
 20
116.158227
 30
0.0
 40
9.075747
100
AcDbArc
 50
72.412046
 51
90.0
  0
LINE
  5
287
100
AcDbEntity
  8
LAY-1
  6
CONTINUOUS
 62
     7
100
AcDbLine
 10
180.1
 20
125.233975
 30
0.0
 11
184.85
 21
125.233975
 31
0.0
  0
ARC
  5
288
100
AcDbEntity
  8
LAY-1
  6
CONTINUOUS
 62
     7
100
AcDbCircle
 10
184.213621
 20
122.805943
 30
0.0
 40
2.428032
100
AcDbArc
 50
55.615753
 51
124.384247
  0
LINE
  5
289
100
AcDbEntity
  8
LAY-1
  6
CONTINUOUS
 62
     7
100
AcDbLine
 10
182.842414
 20
124.809722
 30
0.0
 11
182.842414
 21
120.233975
 31
0.0
  0
LINE
  5
28A
100
AcDbEntity
  8
LAY-1
  6
CONTINUOUS
 62
     7
100
AcDbLine
 10
184.85
 20
125.233975
 30
0.0
 11
185.584828
 21
124.809722
 31
0.0
  0
LINE
  5
28B
100
AcDbEntity
  8
LAY-1
  6
CONTINUOUS
 62
     7
100
AcDbLine
 10
185.584828
 20
124.809722
 30
0.0
 11
185.584828
 21
120.233975
 31
0.0
  0
LINE
  5
28C
100
AcDbEntity
  8
LAY-1
  6
CONTINUOUS
 62
     7
100
AcDbLine
 10
185.584828
 20
120.233975
 30
0.0
 11
180.1
 21
120.233975
 31
0.0
  0
LINE
  5
28D
100
AcDbEntity
  8
LAY-1
  6
CONTINUOUS
 62
     7
100
AcDbLine
 10
186.1
 20
119.497114
 30
0.0
 11
183.35
 21
120.233975
 31
0.0
  0
LINE
  5
28E
100
AcDbEntity
  8
LAY-1
  6
CONTINUOUS
 62
     7
100
AcDbLine
 10
180.1
 20
119.497114
 30
0.0
 11
186.1
 21
119.497114
 31
0.0
  0
LINE
  5
28F
100
AcDbEntity
  8
LAY-1
  6
CONTINUOUS
 62
     7
100
AcDbLine
 10
186.1
 20
119.497114
 30
0.0
 11
186.1
 21
118.883975
 31
0.0
  0
LINE
  5
290
100
AcDbEntity
  8
LAY-1
  6
CONTINUOUS
 62
     7
100
AcDbLine
 10
174.1
 20
118.883975
 30
0.0
 11
186.1
 21
118.883975
 31
0.0
  0
LINE
  5
291
100
AcDbEntity
  8
LAY-1
  6
CONTINUOUS
 62
     7
100
AcDbLine
 10
156.35
 20
118.883975
 30
0.0
 11
145.1
 21
118.883975
 31
0.0
  0
LINE
  5
292
100
AcDbEntity
  8
LAY-1
  6
CONTINUOUS
 62
     7
100
AcDbLine
 10
154.6
 20
117.383975
 30
0.0
 11
154.6
 21
118.883975
 31
0.0
  0
LINE
  5
293
100
AcDbEntity
  8
LAY-1
  6
CONTINUOUS
 62
     7
100
AcDbLine
 10
161.85
 20
117.383975
 30
0.0
 11
154.6
 21
117.383975
 31
0.0
  0
LINE
  5
294
100
AcDbEntity
  8
LAY-1
  6
CONTINUOUS
 62
     7
100
AcDbLine
 10
161.85
 20
118.883975
 30
0.0
 11
161.85
 21
117.383975
 31
0.0
  0
LINE
  5
295
100
AcDbEntity
  8
LAY-1
  6
CONTINUOUS
 62
     7
100
AcDbLine
 10
164.1
 20
118.883975
 30
0.0
 11
161.1
 21
118.883975
 31
0.0
  0
LINE
  5
296
100
AcDbEntity
  8
LAY-1
  6
CONTINUOUS
 62
     7
100
AcDbLine
 10
163.35
 20
117.383975
 30
0.0
 11
163.35
 21
118.883975
 31
0.0
  0
LINE
  5
297
100
AcDbEntity
  8
LAY-1
  6
CONTINUOUS
 62
     7
100
AcDbLine
 10
168.85
 20
117.383975
 30
0.0
 11
163.35
 21
117.383975
 31
0.0
  0
LINE
  5
298
100
AcDbEntity
  8
LAY-1
  6
CONTINUOUS
 62
     7
100
AcDbLine
 10
168.85
 20
118.883975
 30
0.0
 11
168.85
 21
117.383975
 31
0.0
  0
LINE
  5
299
100
AcDbEntity
  8
LAY-1
  6
CONTINUOUS
 62
     7
100
AcDbLine
 10
180.1
 20
118.883975
 30
0.0
 11
168.1
 21
118.883975
 31
0.0
  0
LINE
  5
29A
100
AcDbEntity
  8
LAY-1
  6
CONTINUOUS
 62
     7
100
AcDbLine
 10
180.1
 20
118.883975
 30
0.0
 11
192.1
 21
118.883975
 31
0.0
  0
LINE
  5
29B
100
AcDbEntity
  8
LAY-1
  6
CONTINUOUS
 62
     7
100
AcDbLine
 10
191.35
 20
118.883975
 30
0.0
 11
191.35
 21
117.383975
 31
0.0
  0
LINE
  5
29C
100
AcDbEntity
  8
LAY-1
  6
CONTINUOUS
 62
     7
100
AcDbLine
 10
191.35
 20
117.383975
 30
0.0
 11
196.85
 21
117.383975
 31
0.0
  0
LINE
  5
29D
100
AcDbEntity
  8
LAY-1
  6
CONTINUOUS
 62
     7
100
AcDbLine
 10
196.85
 20
117.383975
 30
0.0
 11
196.85
 21
118.883975
 31
0.0
  0
LINE
  5
29E
100
AcDbEntity
  8
LAY-1
  6
CONTINUOUS
 62
     7
100
AcDbLine
 10
198.35
 20
118.883975
 30
0.0
 11
198.35
 21
117.383975
 31
0.0
  0
LINE
  5
29F
100
AcDbEntity
  8
LAY-1
  6
CONTINUOUS
 62
     7
100
AcDbLine
 10
196.1
 20
118.883975
 30
0.0
 11
199.1
 21
118.883975
 31
0.0
  0
LINE
  5
2A0
100
AcDbEntity
  8
LAY-1
  6
CONTINUOUS
 62
     7
100
AcDbLine
 10
198.35
 20
117.383975
 30
0.0
 11
205.6
 21
117.383975
 31
0.0
  0
LINE
  5
2A1
100
AcDbEntity
  8
LAY-1
  6
CONTINUOUS
 62
     7
100
AcDbLine
 10
205.6
 20
117.383975
 30
0.0
 11
205.6
 21
118.883975
 31
0.0
  0
LINE
  5
2A2
100
AcDbEntity
  8
LAY-1
  6
CONTINUOUS
 62
     7
100
AcDbLine
 10
203.85
 20
118.883975
 30
0.0
 11
215.1
 21
118.883975
 31
0.0
  0
LINE
  5
2A3
100
AcDbEntity
  8
LAY-1
  6
CONTINUOUS
 62
     7
100
AcDbLine
 10
215.1
 20
118.883975
 30
0.0
 11
215.1
 21
117.383975
 31
0.0
  0
ARC
  5
2A4
100
AcDbEntity
  8
LAY-1
  6
CONTINUOUS
 62
     7
100
AcDbCircle
 10
212.6
 20
117.383975
 30
0.0
 40
2.5
100
AcDbArc
 50
270.0
 51
0.0
  0
LINE
  5
2A5
100
AcDbEntity
  8
LAY-1
  6
CONTINUOUS
 62
     7
100
AcDbLine
 10
212.6
 20
114.883975
 30
0.0
 11
183.1
 21
114.883975
 31
0.0
  0
LINE
  5
2A6
100
AcDbEntity
  8
LAY-1
  6
CONTINUOUS
 62
     7
100
AcDbLine
 10
147.6
 20
114.883975
 30
0.0
 11
177.1
 21
114.883975
 31
0.0
  0
ARC
  5
2A7
100
AcDbEntity
  8
LAY-1
  6
CONTINUOUS
 62
     7
100
AcDbCircle
 10
147.6
 20
117.383975
 30
0.0
 40
2.5
100
AcDbArc
 50
180.0
 51
270.0
  0
LINE
  5
2A8
100
AcDbEntity
  8
LAY-1
  6
CONTINUOUS
 62
     7
100
AcDbLine
 10
145.1
 20
118.883975
 30
0.0
 11
145.1
 21
117.383975
 31
0.0
  0
LINE
  5
2A9
100
AcDbEntity
  8
LAY-1
  6
CONTINUOUS
 62
     7
100
AcDbLine
 10
225.35
 20
101.475074
 30
0.0
 11
234.85
 21
101.475074
 31
0.0
  0
ARC
  5
2AA
100
AcDbEntity
  8
LAY-1
  6
CONTINUOUS
 62
     7
100
AcDbCircle
 10
234.213621
 20
103.903106
 30
0.0
 40
2.428032
100
AcDbArc
 50
235.615753
 51
304.384247
  0
LINE
  5
2AB
100
AcDbEntity
  8
LAY-1
  6
CONTINUOUS
 62
     7
100
AcDbLine
 10
232.842414
 20
105.475074
 30
0.0
 11
232.842414
 21
101.899327
 31
0.0
  0
LINE
  5
2AC
100
AcDbEntity
  8
LAY-1
  6
CONTINUOUS
 62
     7
100
AcDbLine
 10
234.85
 20
101.475074
 30
0.0
 11
235.584828
 21
101.899327
 31
0.0
  0
LINE
  5
2AD
100
AcDbEntity
  8
LAY-1
  6
CONTINUOUS
 62
     7
100
AcDbLine
 10
235.584828
 20
101.899327
 30
0.0
 11
235.584828
 21
105.475074
 31
0.0
  0
ARC
  5
2AE
100
AcDbEntity
  8
LAY-1
  6
CONTINUOUS
 62
     7
100
AcDbCircle
 10
230.1
 20
110.550821
 30
0.0
 40
9.075747
100
AcDbArc
 50
252.412046
 51
287.587954
  0
ARC
  5
2AF
100
AcDbEntity
  8
LAY-1
  6
CONTINUOUS
 62
     7
100
AcDbCircle
 10
225.986379
 20
103.903106
 30
0.0
 40
2.428032
100
AcDbArc
 50
235.615753
 51
304.384247
  0
LINE
  5
2B0
100
AcDbEntity
  8
LAY-1
  6
CONTINUOUS
 62
     7
100
AcDbLine
 10
227.357586
 20
101.899327
 30
0.0
 11
227.357586
 21
105.475074
 31
0.0
  0
LINE
  5
2B1
100
AcDbEntity
  8
LAY-1
  6
CONTINUOUS
 62
     7
100
AcDbLine
 10
224.615172
 20
101.899327
 30
0.0
 11
225.35
 21
101.475074
 31
0.0
  0
LINE
  5
2B2
100
AcDbEntity
  8
LAY-1
  6
CONTINUOUS
 62
     7
100
AcDbLine
 10
224.615172
 20
105.475074
 30
0.0
 11
224.615172
 21
101.899327
 31
0.0
  0
LINE
  5
2B3
100
AcDbEntity
  8
LAY-1
  6
CONTINUOUS
 62
     7
100
AcDbLine
 10
235.1
 20
105.475074
 30
0.0
 11
224.490589
 21
105.475074
 31
0.0
  0
ARC
  5
2B4
100
AcDbEntity
  8
LAY-1
  6
CONTINUOUS
 62
     7
100
AcDbCircle
 10
235.1
 20
106.46652
 30
0.0
 40
1.0
100
AcDbArc
 50
271.0
 51
0.0
  0
LINE
  5
2B5
100
AcDbEntity
  8
LAY-1
  6
CONTINUOUS
 62
     7
100
AcDbLine
 10
236.1
 20
112.983975
 30
0.0
 11
236.1
 21
106.46652
 31
0.0
  0
LINE
  5
2B6
100
AcDbEntity
  8
LAY-1
  6
CONTINUOUS
 62
     7
100
AcDbLine
 10
235.6
 20
121.475074
 30
0.0
 11
223.558166
 21
121.475074
 31
0.0
  0
LINE
  5
2B7
100
AcDbEntity
  8
LAY-1
  6
CONTINUOUS
 62
     7
100
AcDbLine
 10
223.85
 20
114.225074
 30
0.0
 11
223.994338
 21
113.975074
 31
0.0
  0
LINE
  5
2B8
100
AcDbEntity
  8
LAY-1
  6
CONTINUOUS
 62
     7
100
AcDbLine
 10
223.705662
 20
113.975074
 30
0.0
 11
223.85
 21
114.225074
 31
0.0
  0
LINE
  5
2B9
100
AcDbEntity
  8
LAY-1
  6
CONTINUOUS
 62
     7
100
AcDbLine
 10
136.35
 20
114.225074
 30
0.0
 11
136.494338
 21
113.975074
 31
0.0
  0
LINE
  5
2BA
100
AcDbEntity
  8
LAY-1
  6
CONTINUOUS
 62
     7
100
AcDbLine
 10
136.205662
 20
113.975074
 30
0.0
 11
136.35
 21
114.225074
 31
0.0
  0
LINE
  5
2BB
100
AcDbEntity
  8
LAY-1
  6
CONTINUOUS
 62
     7
100
AcDbLine
 10
124.1
 20
113.975074
 30
0.0
 11
138.082673
 21
113.975074
 31
0.0
  0
ARC
  5
2BC
100
AcDbEntity
  8
LAY-1
  6
CONTINUOUS
 62
     7
100
AcDbCircle
 10
138.082673
 20
114.975074
 30
0.0
 40
1.0
100
AcDbArc
 50
270.0
 51
345.0
  0
LINE
  5
2BD
100
AcDbEntity
  8
LAY-1
  6
CONTINUOUS
 62
     7
100
AcDbLine
 10
222.117327
 20
113.975074
 30
0.0
 11
227.1
 21
113.975074
 31
0.0
  0
LINE
  5
2BE
100
AcDbEntity
  8
LAY-1
  6
EXLTYPE4
 62
     1
100
AcDbLine
 10
156.35
 20
117.383975
 30
0.0
 11
156.35
 21
162.475074
 31
0.0
  0
LINE
  5
2BF
100
AcDbEntity
  8
LAY-1
  6
EXLTYPE4
 62
     1
100
AcDbLine
 10
161.1
 20
162.475074
 30
0.0
 11
161.1
 21
117.383975
 31
0.0
  0
LINE
  5
2C0
100
AcDbEntity
  8
LAY-1
  6
EXLTYPE4
 62
     1
100
AcDbLine
 10
164.1
 20
117.383975
 30
0.0
 11
164.1
 21
161.475074
 31
0.0
  0
LINE
  5
2C1
100
AcDbEntity
  8
LAY-1
  6
EXLTYPE4
 62
     1
100
AcDbLine
 10
168.1
 20
161.475074
 30
0.0
 11
168.1
 21
117.383975
 31
0.0
  0
LINE
  5
2C2
100
AcDbEntity
  8
LAY-1
  6
EXLTYPE4
 62
     1
100
AcDbLine
 10
192.1
 20
161.475074
 30
0.0
 11
192.1
 21
117.383975
 31
0.0
  0
LINE
  5
2C3
100
AcDbEntity
  8
LAY-1
  6
EXLTYPE4
 62
     1
100
AcDbLine
 10
196.1
 20
117.383975
 30
0.0
 11
196.1
 21
161.475074
 31
0.0
  0
LINE
  5
2C4
100
AcDbEntity
  8
LAY-1
  6
EXLTYPE4
 62
     1
100
AcDbLine
 10
199.1
 20
162.475074
 30
0.0
 11
199.1
 21
117.383975
 31
0.0
  0
LINE
  5
2C5
100
AcDbEntity
  8
LAY-1
  6
EXLTYPE4
 62
     1
100
AcDbLine
 10
203.85
 20
117.383975
 30
0.0
 11
203.85
 21
162.475074
 31
0.0
  0
ARC
  5
2C6
100
AcDbEntity
  8
LAY-1
  6
CONTINUOUS
 62
     7
100
AcDbCircle
 10
217.234955
 20
111.487604
 30
0.0
 40
5.0
100
AcDbArc
 50
35.538159
 51
128.707538
  0
ARC
  5
2C7
100
AcDbEntity
  8
LAY-1
  6
CONTINUOUS
 62
     7
100
AcDbCircle
 10
217.234955
 20
111.487604
 30
0.0
 40
5.0
100
AcDbArc
 50
17.341615
 51
17.414014
  0
ARC
  5
2C8
100
AcDbEntity
  8
LAY-1
  6
CONTINUOUS
 62
     7
100
AcDbCircle
 10
217.234955
 20
111.487604
 30
0.0
 40
4.0
100
AcDbArc
 50
37.939299
 51
128.169796
  0
ARC
  5
2C9
100
AcDbEntity
  8
LAY-1
  6
CONTINUOUS
 62
     7
100
AcDbCircle
 10
222.361262
 20
115.483975
 30
0.0
 40
2.5
100
AcDbArc
 50
217.939299
 51
270.0
  0
ARC
  5
2CA
100
AcDbEntity
  8
LAY-1
  6
CONTINUOUS
 62
     7
100
AcDbCircle
 10
212.6
 20
117.383975
 30
0.0
 40
3.5
100
AcDbArc
 50
270.0
 51
308.169796
  0
ARC
  5
2CB
100
AcDbEntity
  8
LAY-1
  6
CONTINUOUS
 62
     7
100
AcDbCircle
 10
142.965045
 20
111.487604
 30
0.0
 40
5.0
100
AcDbArc
 50
51.292462
 51
144.461841
  0
ARC
  5
2CC
100
AcDbEntity
  8
LAY-1
  6
CONTINUOUS
 62
     7
100
AcDbCircle
 10
142.965045
 20
111.487604
 30
0.0
 40
4.0
100
AcDbArc
 50
51.830204
 51
142.060701
  0
ARC
  5
2CD
100
AcDbEntity
  8
LAY-1
  6
CONTINUOUS
 62
     7
100
AcDbCircle
 10
147.6
 20
117.383975
 30
0.0
 40
3.5
100
AcDbArc
 50
231.830204
 51
270.0
  0
ARC
  5
2CE
100
AcDbEntity
  8
LAY-1
  6
CONTINUOUS
 62
     7
100
AcDbCircle
 10
142.965045
 20
111.487604
 30
0.0
 40
5.0
100
AcDbArc
 50
51.292462
 51
144.461841
  0
ARC
  5
2CF
100
AcDbEntity
  8
LAY-1
  6
CONTINUOUS
 62
     7
100
AcDbCircle
 10
138.082673
 20
111.983975
 30
0.0
 40
1.0
100
AcDbArc
 50
15.0
 51
90.0
  0
ARC
  5
2D0
100
AcDbEntity
  8
LAY-1
  6
CONTINUOUS
 62
     7
100
AcDbCircle
 10
138.082673
 20
114.975074
 30
0.0
 40
1.0
100
AcDbArc
 50
270.0
 51
345.0
  0
ARC
  5
2D1
100
AcDbEntity
  8
LAY-1
  6
CONTINUOUS
 62
     7
100
AcDbCircle
 10
142.965045
 20
111.487604
 30
0.0
 40
5.0
100
AcDbArc
 50
162.585986
 51
162.658385
  0
ARC
  5
2D2
100
AcDbEntity
  8
LAY-1
  6
CONTINUOUS
 62
     7
100
AcDbCircle
 10
137.838738
 20
115.483975
 30
0.0
 40
2.5
100
AcDbArc
 50
270.0
 51
322.060701
  0
LINE
  5
2D3
100
AcDbEntity
  8
LAY-1
  6
CONTINUOUS
 62
     1
100
AcDbLine
 10
292.4
 20
81.0
 30
0.0
 11
402.0
 21
81.0
 31
0.0
  0
LINE
  5
2D4
100
AcDbEntity
  8
LAY-1
  6
CONTINUOUS
 62
     1
100
AcDbLine
 10
292.4
 20
86.0
 30
0.0
 11
402.0
 21
86.0
 31
0.0
  0
LINE
  5
2D5
100
AcDbEntity
  8
LAY-1
  6
CONTINUOUS
 62
     1
100
AcDbLine
 10
292.4
 20
91.0
 30
0.0
 11
402.0
 21
91.0
 31
0.0
  0
LINE
  5
2D6
100
AcDbEntity
  8
LAY-1
  6
CONTINUOUS
 62
     1
100
AcDbLine
 10
292.4
 20
96.0
 30
0.0
 11
402.0
 21
96.0
 31
0.0
  0
LINE
  5
2D7
100
AcDbEntity
  8
LAY-1
  6
CONTINUOUS
 62
     1
100
AcDbLine
 10
292.4
 20
101.0
 30
0.0
 11
402.0
 21
101.0
 31
0.0
  0
LINE
  5
2D8
100
AcDbEntity
  8
LAY-1
  6
CONTINUOUS
 62
     1
100
AcDbLine
 10
292.4
 20
106.0
 30
0.0
 11
402.0
 21
106.0
 31
0.0
  0
LINE
  5
2D9
100
AcDbEntity
  8
LAY-1
  6
CONTINUOUS
 62
     1
100
AcDbLine
 10
292.4
 20
111.0
 30
0.0
 11
402.0
 21
111.0
 31
0.0
  0
LINE
  5
2DA
100
AcDbEntity
  8
LAY-1
  6
CONTINUOUS
 62
     1
100
AcDbLine
 10
292.4
 20
116.0
 30
0.0
 11
402.0
 21
116.0
 31
0.0
  0
LINE
  5
2DB
100
AcDbEntity
  8
LAY-1
  6
CONTINUOUS
 62
     1
100
AcDbLine
 10
292.4
 20
121.0
 30
0.0
 11
402.0
 21
121.0
 31
0.0
  0
LINE
  5
2DC
100
AcDbEntity
  8
LAY-1
  6
CONTINUOUS
 62
     1
100
AcDbLine
 10
292.4
 20
126.0
 30
0.0
 11
402.0
 21
126.0
 31
0.0
  0
LINE
  5
2DD
100
AcDbEntity
  8
LAY-1
  6
CONTINUOUS
 62
     1
100
AcDbLine
 10
292.4
 20
131.0
 30
0.0
 11
402.0
 21
131.0
 31
0.0
  0
LINE
  5
2DE
100
AcDbEntity
  8
LAY-1
  6
CONTINUOUS
 62
     1
100
AcDbLine
 10
292.4
 20
136.0
 30
0.0
 11
402.0
 21
136.0
 31
0.0
  0
LINE
  5
2DF
100
AcDbEntity
  8
LAY-1
  6
CONTINUOUS
 62
     1
100
AcDbLine
 10
292.4
 20
141.0
 30
0.0
 11
402.0
 21
141.0
 31
0.0
  0
LINE
  5
2E0
100
AcDbEntity
  8
LAY-1
  6
CONTINUOUS
 62
     1
100
AcDbLine
 10
292.4
 20
146.0
 30
0.0
 11
402.0
 21
146.0
 31
0.0
  0
LINE
  5
2E1
100
AcDbEntity
  8
LAY-1
  6
CONTINUOUS
 62
     1
100
AcDbLine
 10
292.4
 20
151.0
 30
0.0
 11
402.0
 21
151.0
 31
0.0
  0
LINE
  5
2E2
100
AcDbEntity
  8
LAY-1
  6
CONTINUOUS
 62
     1
100
AcDbLine
 10
292.4
 20
156.0
 30
0.0
 11
402.0
 21
156.0
 31
0.0
  0
LINE
  5
2E3
100
AcDbEntity
  8
LAY-1
  6
CONTINUOUS
 62
     1
100
AcDbLine
 10
292.4
 20
161.0
 30
0.0
 11
402.0
 21
161.0
 31
0.0
  0
LINE
  5
2E4
100
AcDbEntity
  8
LAY-1
  6
CONTINUOUS
 62
     1
100
AcDbLine
 10
292.4
 20
166.0
 30
0.0
 11
402.0
 21
166.0
 31
0.0
  0
LINE
  5
2E5
100
AcDbEntity
  8
LAY-1
  6
CONTINUOUS
 62
     1
100
AcDbLine
 10
292.4
 20
171.0
 30
0.0
 11
402.0
 21
171.0
 31
0.0
  0
LINE
  5
2E6
100
AcDbEntity
  8
LAY-1
  6
CONTINUOUS
 62
     1
100
AcDbLine
 10
292.4
 20
176.0
 30
0.0
 11
402.0
 21
176.0
 31
0.0
  0
LINE
  5
2E7
100
AcDbEntity
  8
LAY-1
  6
CONTINUOUS
 62
     1
100
AcDbLine
 10
292.4
 20
181.0
 30
0.0
 11
402.0
 21
181.0
 31
0.0
  0
LINE
  5
2E8
100
AcDbEntity
  8
LAY-1
  6
CONTINUOUS
 62
     1
100
AcDbLine
 10
292.4
 20
186.0
 30
0.0
 11
402.0
 21
186.0
 31
0.0
  0
LINE
  5
2E9
100
AcDbEntity
  8
LAY-1
  6
CONTINUOUS
 62
     1
100
AcDbLine
 10
292.4
 20
191.0
 30
0.0
 11
402.0
 21
191.0
 31
0.0
  0
LINE
  5
2EA
100
AcDbEntity
  8
LAY-1
  6
CONTINUOUS
 62
     1
100
AcDbLine
 10
292.4
 20
196.0
 30
0.0
 11
402.0
 21
196.0
 31
0.0
  0
LINE
  5
2EB
100
AcDbEntity
  8
LAY-1
  6
CONTINUOUS
 62
     1
100
AcDbLine
 10
292.4
 20
201.0
 30
0.0
 11
402.0
 21
201.0
 31
0.0
  0
LINE
  5
2EC
100
AcDbEntity
  8
LAY-1
  6
CONTINUOUS
 62
     1
100
AcDbLine
 10
292.4
 20
206.0
 30
0.0
 11
402.0
 21
206.0
 31
0.0
  0
LINE
  5
2ED
100
AcDbEntity
  8
LAY-1
  6
CONTINUOUS
 62
     1
100
AcDbLine
 10
292.4
 20
211.0
 30
0.0
 11
402.0
 21
211.0
 31
0.0
  0
LINE
  5
2EE
100
AcDbEntity
  8
LAY-1
  6
CONTINUOUS
 62
     1
100
AcDbLine
 10
292.4
 20
216.0
 30
0.0
 11
402.0
 21
216.0
 31
0.0
  0
LINE
  5
2EF
100
AcDbEntity
  8
LAY-1
  6
CONTINUOUS
 62
     1
100
AcDbLine
 10
292.4
 20
221.0
 30
0.0
 11
402.0
 21
221.0
 31
0.0
  0
TEXT
  5
2F0
100
AcDbEntity
  8
LAY-1
  6
CONTINUOUS
 62
     3
100
AcDbText
 10
346.25
 20
71.5
 30
0.0
 40
3.6
  1
１
 41
0.583333
  7
EXCADSTD
 72
     5
 11
348.25
 21
71.5
 31
0.0
100
AcDbText
  0
TEXT
  5
2F1
100
AcDbEntity
  8
LAY-1
  6
CONTINUOUS
 62
     3
100
AcDbText
 10
346.25
 20
76.5
 30
0.0
 40
3.6
  1
１
 41
0.583333
  7
EXCADSTD
 72
     5
 11
348.25
 21
76.5
 31
0.0
100
AcDbText
  0
TEXT
  5
2F2
100
AcDbEntity
  8
LAY-1
  6
CONTINUOUS
 62
     3
100
AcDbText
 10
346.25
 20
81.5
 30
0.0
 40
3.6
  1
１
 41
0.583333
  7
EXCADSTD
 72
     5
 11
348.25
 21
81.5
 31
0.0
100
AcDbText
  0
TEXT
  5
2F3
100
AcDbEntity
  8
LAY-1
  6
CONTINUOUS
 62
     3
100
AcDbText
 10
346.25
 20
86.5
 30
0.0
 40
3.6
  1
１
 41
0.583333
  7
EXCADSTD
 72
     5
 11
348.25
 21
86.5
 31
0.0
100
AcDbText
  0
TEXT
  5
2F4
100
AcDbEntity
  8
LAY-1
  6
CONTINUOUS
 62
     3
100
AcDbText
 10
346.25
 20
91.5
 30
0.0
 40
3.6
  1
１
 41
0.583333
  7
EXCADSTD
 72
     5
 11
348.25
 21
91.5
 31
0.0
100
AcDbText
  0
TEXT
  5
2F5
100
AcDbEntity
  8
LAY-1
  6
CONTINUOUS
 62
     3
100
AcDbText
 10
346.25
 20
96.5
 30
0.0
 40
3.6
  1
１
 41
0.583333
  7
EXCADSTD
 72
     5
 11
348.25
 21
96.5
 31
0.0
100
AcDbText
  0
TEXT
  5
2F6
100
AcDbEntity
  8
LAY-1
  6
CONTINUOUS
 62
     3
100
AcDbText
 10
346.25
 20
101.5
 30
0.0
 40
3.6
  1
１
 41
0.583333
  7
EXCADSTD
 72
     5
 11
348.25
 21
101.5
 31
0.0
100
AcDbText
  0
TEXT
  5
2F7
100
AcDbEntity
  8
LAY-1
  6
CONTINUOUS
 62
     3
100
AcDbText
 10
346.25
 20
106.5
 30
0.0
 40
3.6
  1
１
 41
0.583333
  7
EXCADSTD
 72
     5
 11
348.25
 21
106.5
 31
0.0
100
AcDbText
  0
TEXT
  5
2F8
100
AcDbEntity
  8
LAY-1
  6
CONTINUOUS
 62
     3
100
AcDbText
 10
346.25
 20
111.5
 30
0.0
 40
3.6
  1
１
 41
0.583333
  7
EXCADSTD
 72
     5
 11
348.25
 21
111.5
 31
0.0
100
AcDbText
  0
TEXT
  5
2F9
100
AcDbEntity
  8
LAY-1
  6
CONTINUOUS
 62
     3
100
AcDbText
 10
346.25
 20
116.5
 30
0.0
 40
3.6
  1
１
 41
0.583333
  7
EXCADSTD
 72
     5
 11
348.25
 21
116.5
 31
0.0
100
AcDbText
  0
TEXT
  5
2FA
100
AcDbEntity
  8
LAY-1
  6
CONTINUOUS
 62
     3
100
AcDbText
 10
346.25
 20
121.5
 30
0.0
 40
3.6
  1
１
 41
0.583333
  7
EXCADSTD
 72
     5
 11
348.25
 21
121.5
 31
0.0
100
AcDbText
  0
TEXT
  5
2FB
100
AcDbEntity
  8
LAY-1
  6
CONTINUOUS
 62
     3
100
AcDbText
 10
346.25
 20
126.5
 30
0.0
 40
3.6
  1
１
 41
0.583333
  7
EXCADSTD
 72
     5
 11
348.25
 21
126.5
 31
0.0
100
AcDbText
  0
TEXT
  5
2FC
100
AcDbEntity
  8
LAY-1
  6
CONTINUOUS
 62
     3
100
AcDbText
 10
346.25
 20
131.5
 30
0.0
 40
3.6
  1
１
 41
0.583333
  7
EXCADSTD
 72
     5
 11
348.25
 21
131.5
 31
0.0
100
AcDbText
  0
TEXT
  5
2FD
100
AcDbEntity
  8
LAY-1
  6
CONTINUOUS
 62
     3
100
AcDbText
 10
346.25
 20
136.5
 30
0.0
 40
3.6
  1
１
 41
0.583333
  7
EXCADSTD
 72
     5
 11
348.25
 21
136.5
 31
0.0
100
AcDbText
  0
TEXT
  5
2FE
100
AcDbEntity
  8
LAY-1
  6
CONTINUOUS
 62
     3
100
AcDbText
 10
346.25
 20
141.5
 30
0.0
 40
3.6
  1
１
 41
0.583333
  7
EXCADSTD
 72
     5
 11
348.25
 21
141.5
 31
0.0
100
AcDbText
  0
TEXT
  5
2FF
100
AcDbEntity
  8
LAY-1
  6
CONTINUOUS
 62
     3
100
AcDbText
 10
346.25
 20
146.5
 30
0.0
 40
3.6
  1
１
 41
0.583333
  7
EXCADSTD
 72
     5
 11
348.25
 21
146.5
 31
0.0
100
AcDbText
  0
TEXT
  5
300
100
AcDbEntity
  8
LAY-1
  6
CONTINUOUS
 62
     3
100
AcDbText
 10
346.25
 20
151.5
 30
0.0
 40
3.6
  1
１
 41
0.583333
  7
EXCADSTD
 72
     5
 11
348.25
 21
151.5
 31
0.0
100
AcDbText
  0
TEXT
  5
301
100
AcDbEntity
  8
LAY-1
  6
CONTINUOUS
 62
     3
100
AcDbText
 10
346.25
 20
156.5
 30
0.0
 40
3.6
  1
８
 41
0.583333
  7
EXCADSTD
 72
     5
 11
348.25
 21
156.5
 31
0.0
100
AcDbText
  0
TEXT
  5
302
100
AcDbEntity
  8
LAY-1
  6
CONTINUOUS
 62
     3
100
AcDbText
 10
346.25
 20
161.5
 30
0.0
 40
3.6
  1
９
 41
0.583333
  7
EXCADSTD
 72
     5
 11
348.25
 21
161.5
 31
0.0
100
AcDbText
  0
TEXT
  5
303
100
AcDbEntity
  8
LAY-1
  6
CONTINUOUS
 62
     3
100
AcDbText
 10
346.25
 20
171.5
 30
0.0
 40
3.6
  1
１
 41
0.583333
  7
EXCADSTD
 72
     5
 11
348.25
 21
171.5
 31
0.0
100
AcDbText
  0
TEXT
  5
304
100
AcDbEntity
  8
LAY-1
  6
CONTINUOUS
 62
     3
100
AcDbText
 10
346.25
 20
176.5
 30
0.0
 40
3.6
  1
１
 41
0.583333
  7
EXCADSTD
 72
     5
 11
348.25
 21
176.5
 31
0.0
100
AcDbText
  0
TEXT
  5
305
100
AcDbEntity
  8
LAY-1
  6
CONTINUOUS
 62
     3
100
AcDbText
 10
346.25
 20
181.5
 30
0.0
 40
3.6
  1
１
 41
0.583333
  7
EXCADSTD
 72
     5
 11
348.25
 21
181.5
 31
0.0
100
AcDbText
  0
TEXT
  5
306
100
AcDbEntity
  8
LAY-1
  6
CONTINUOUS
 62
     3
100
AcDbText
 10
346.25
 20
186.5
 30
0.0
 40
3.6
  1
１
 41
0.583333
  7
EXCADSTD
 72
     5
 11
348.25
 21
186.5
 31
0.0
100
AcDbText
  0
TEXT
  5
307
100
AcDbEntity
  8
LAY-1
  6
CONTINUOUS
 62
     3
100
AcDbText
 10
346.25
 20
191.5
 30
0.0
 40
3.6
  1
２
 41
0.583333
  7
EXCADSTD
 72
     5
 11
348.25
 21
191.5
 31
0.0
100
AcDbText
  0
TEXT
  5
308
100
AcDbEntity
  8
LAY-1
  6
CONTINUOUS
 62
     3
100
AcDbText
 10
346.25
 20
196.5
 30
0.0
 40
3.6
  1
１
 41
0.583333
  7
EXCADSTD
 72
     5
 11
348.25
 21
196.5
 31
0.0
100
AcDbText
  0
TEXT
  5
309
100
AcDbEntity
  8
LAY-1
  6
CONTINUOUS
 62
     3
100
AcDbText
 10
346.25
 20
201.5
 30
0.0
 40
3.6
  1
２
 41
0.583333
  7
EXCADSTD
 72
     5
 11
348.25
 21
201.5
 31
0.0
100
AcDbText
  0
TEXT
  5
30A
100
AcDbEntity
  8
LAY-1
  6
CONTINUOUS
 62
     3
100
AcDbText
 10
346.25
 20
206.5
 30
0.0
 40
3.6
  1
５
 41
0.583333
  7
EXCADSTD
 72
     5
 11
348.25
 21
206.5
 31
0.0
100
AcDbText
  0
TEXT
  5
30B
100
AcDbEntity
  8
LAY-1
  6
CONTINUOUS
 62
     3
100
AcDbText
 10
346.25
 20
211.5
 30
0.0
 40
3.6
  1
１
 41
0.583333
  7
EXCADSTD
 72
     5
 11
348.25
 21
211.5
 31
0.0
100
AcDbText
  0
TEXT
  5
30C
100
AcDbEntity
  8
LAY-1
  6
CONTINUOUS
 62
     3
100
AcDbText
 10
346.25
 20
216.5
 30
0.0
 40
3.6
  1
１
 41
0.583333
  7
EXCADSTD
 72
     5
 11
348.25
 21
216.5
 31
0.0
100
AcDbText
  0
TEXT
  5
30D
100
AcDbEntity
  8
LAY-1
  6
CONTINUOUS
 62
     3
100
AcDbText
 10
294.81
 20
116.905
 30
0.0
 40
3.6
  1
１０
 41
0.583333
  7
EXCADSTD
 72
     5
 11
299.393
 21
116.905
 31
0.0
100
AcDbText
  0
TEXT
  5
30E
100
AcDbEntity
  8
LAY-1
  6
CONTINUOUS
 62
     3
100
AcDbText
 10
294.81
 20
121.905
 30
0.0
 40
3.6
  1
１１
 41
0.583333
  7
EXCADSTD
 72
     5
 11
299.393
 21
121.905
 31
0.0
100
AcDbText
  0
TEXT
  5
30F
100
AcDbEntity
  8
LAY-1
  6
CONTINUOUS
 62
     3
100
AcDbText
 10
294.81
 20
126.905
 30
0.0
 40
3.6
  1
１２
 41
0.583333
  7
EXCADSTD
 72
     5
 11
299.393
 21
126.905
 31
0.0
100
AcDbText
  0
TEXT
  5
310
100
AcDbEntity
  8
LAY-1
  6
CONTINUOUS
 62
     3
100
AcDbText
 10
294.81
 20
131.905
 30
0.0
 40
3.6
  1
１３
 41
0.583333
  7
EXCADSTD
 72
     5
 11
299.393
 21
131.905
 31
0.0
100
AcDbText
  0
TEXT
  5
311
100
AcDbEntity
  8
LAY-1
  6
CONTINUOUS
 62
     3
100
AcDbText
 10
294.81
 20
136.905
 30
0.0
 40
3.6
  1
１４
 41
0.583333
  7
EXCADSTD
 72
     5
 11
299.393
 21
136.905
 31
0.0
100
AcDbText
  0
TEXT
  5
312
100
AcDbEntity
  8
LAY-1
  6
CONTINUOUS
 62
     3
100
AcDbText
 10
294.81
 20
141.905
 30
0.0
 40
3.6
  1
１５
 41
0.583333
  7
EXCADSTD
 72
     5
 11
299.393
 21
141.905
 31
0.0
100
AcDbText
  0
TEXT
  5
313
100
AcDbEntity
  8
LAY-1
  6
CONTINUOUS
 62
     3
100
AcDbText
 10
294.81
 20
146.905
 30
0.0
 40
3.6
  1
１６
 41
0.583333
  7
EXCADSTD
 72
     5
 11
299.393
 21
146.905
 31
0.0
100
AcDbText
  0
TEXT
  5
314
100
AcDbEntity
  8
LAY-1
  6
CONTINUOUS
 62
     3
100
AcDbText
 10
294.81
 20
151.905
 30
0.0
 40
3.6
  1
１７
 41
0.583333
  7
EXCADSTD
 72
     5
 11
299.393
 21
151.905
 31
0.0
100
AcDbText
  0
TEXT
  5
315
100
AcDbEntity
  8
LAY-1
  6
CONTINUOUS
 62
     3
100
AcDbText
 10
294.81
 20
156.905
 30
0.0
 40
3.6
  1
１８
 41
0.583333
  7
EXCADSTD
 72
     5
 11
299.393
 21
156.905
 31
0.0
100
AcDbText
  0
TEXT
  5
316
100
AcDbEntity
  8
LAY-1
  6
CONTINUOUS
 62
     3
100
AcDbText
 10
294.81
 20
161.905
 30
0.0
 40
3.6
  1
１９
 41
0.583333
  7
EXCADSTD
 72
     5
 11
299.393
 21
161.905
 31
0.0
100
AcDbText
  0
TEXT
  5
317
100
AcDbEntity
  8
LAY-1
  6
CONTINUOUS
 62
     3
100
AcDbText
 10
294.81
 20
166.905
 30
0.0
 40
3.6
  1
２０
 41
0.583333
  7
EXCADSTD
 72
     5
 11
299.393
 21
166.905
 31
0.0
100
AcDbText
  0
TEXT
  5
318
100
AcDbEntity
  8
LAY-1
  6
CONTINUOUS
 62
     3
100
AcDbText
 10
294.81
 20
171.905
 30
0.0
 40
3.6
  1
２１
 41
0.583333
  7
EXCADSTD
 72
     5
 11
299.393
 21
171.905
 31
0.0
100
AcDbText
  0
TEXT
  5
319
100
AcDbEntity
  8
LAY-1
  6
CONTINUOUS
 62
     3
100
AcDbText
 10
294.81
 20
176.905
 30
0.0
 40
3.6
  1
２２
 41
0.583333
  7
EXCADSTD
 72
     5
 11
299.393
 21
176.905
 31
0.0
100
AcDbText
  0
TEXT
  5
31A
100
AcDbEntity
  8
LAY-1
  6
CONTINUOUS
 62
     3
100
AcDbText
 10
294.81
 20
181.905
 30
0.0
 40
3.6
  1
２３
 41
0.583333
  7
EXCADSTD
 72
     5
 11
299.393
 21
181.905
 31
0.0
100
AcDbText
  0
TEXT
  5
31B
100
AcDbEntity
  8
LAY-1
  6
CONTINUOUS
 62
     3
100
AcDbText
 10
294.81
 20
186.905
 30
0.0
 40
3.6
  1
２４
 41
0.583333
  7
EXCADSTD
 72
     5
 11
299.393
 21
186.905
 31
0.0
100
AcDbText
  0
TEXT
  5
31C
100
AcDbEntity
  8
LAY-1
  6
CONTINUOUS
 62
     3
100
AcDbText
 10
294.81
 20
191.905
 30
0.0
 40
3.6
  1
２５
 41
0.583333
  7
EXCADSTD
 72
     5
 11
299.393
 21
191.905
 31
0.0
100
AcDbText
  0
TEXT
  5
31D
100
AcDbEntity
  8
LAY-1
  6
CONTINUOUS
 62
     3
100
AcDbText
 10
294.81
 20
196.905
 30
0.0
 40
3.6
  1
２６
 41
0.583333
  7
EXCADSTD
 72
     5
 11
299.393
 21
196.905
 31
0.0
100
AcDbText
  0
TEXT
  5
31E
100
AcDbEntity
  8
LAY-1
  6
CONTINUOUS
 62
     3
100
AcDbText
 10
294.81
 20
201.905
 30
0.0
 40
3.6
  1
２７
 41
0.583333
  7
EXCADSTD
 72
     5
 11
299.393
 21
201.905
 31
0.0
100
AcDbText
  0
TEXT
  5
31F
100
AcDbEntity
  8
LAY-1
  6
CONTINUOUS
 62
     3
100
AcDbText
 10
294.81
 20
206.905
 30
0.0
 40
3.6
  1
２８
 41
0.583333
  7
EXCADSTD
 72
     5
 11
299.393
 21
206.905
 31
0.0
100
AcDbText
  0
TEXT
  5
320
100
AcDbEntity
  8
LAY-1
  6
CONTINUOUS
 62
     3
100
AcDbText
 10
294.81
 20
211.905
 30
0.0
 40
3.6
  1
２９
 41
0.583333
  7
EXCADSTD
 72
     5
 11
299.393
 21
211.905
 31
0.0
100
AcDbText
  0
TEXT
  5
321
100
AcDbEntity
  8
LAY-1
  6
CONTINUOUS
 62
     3
100
AcDbText
 10
294.96
 20
216.755
 30
0.0
 40
3.6
  1
３０
 41
0.583333
  7
EXCADSTD
 72
     5
 11
299.543
 21
216.755
 31
0.0
100
AcDbText
  0
TEXT
  5
322
100
AcDbEntity
  8
LAY-1
  6
CONTINUOUS
 62
     3
100
AcDbText
 10
296.4
 20
71.5
 30
0.0
 40
3.6
  1
１
 41
0.583333
  7
EXCADSTD
 72
     5
 11
298.4
 21
71.5
 31
0.0
100
AcDbText
  0
TEXT
  5
323
100
AcDbEntity
  8
LAY-1
  6
CONTINUOUS
 62
     3
100
AcDbText
 10
296.4
 20
76.5
 30
0.0
 40
3.6
  1
２
 41
0.583333
  7
EXCADSTD
 72
     5
 11
298.4
 21
76.5
 31
0.0
100
AcDbText
  0
TEXT
  5
324
100
AcDbEntity
  8
LAY-1
  6
CONTINUOUS
 62
     3
100
AcDbText
 10
296.4
 20
81.5
 30
0.0
 40
3.6
  1
３
 41
0.583333
  7
EXCADSTD
 72
     5
 11
298.4
 21
81.5
 31
0.0
100
AcDbText
  0
TEXT
  5
325
100
AcDbEntity
  8
LAY-1
  6
CONTINUOUS
 62
     3
100
AcDbText
 10
296.4
 20
86.5
 30
0.0
 40
3.6
  1
４
 41
0.583333
  7
EXCADSTD
 72
     5
 11
298.4
 21
86.5
 31
0.0
100
AcDbText
  0
TEXT
  5
326
100
AcDbEntity
  8
LAY-1
  6
CONTINUOUS
 62
     3
100
AcDbText
 10
296.4
 20
91.5
 30
0.0
 40
3.6
  1
５
 41
0.583333
  7
EXCADSTD
 72
     5
 11
298.4
 21
91.5
 31
0.0
100
AcDbText
  0
TEXT
  5
327
100
AcDbEntity
  8
LAY-1
  6
CONTINUOUS
 62
     3
100
AcDbText
 10
296.4
 20
96.5
 30
0.0
 40
3.6
  1
６
 41
0.583333
  7
EXCADSTD
 72
     5
 11
298.4
 21
96.5
 31
0.0
100
AcDbText
  0
TEXT
  5
328
100
AcDbEntity
  8
LAY-1
  6
CONTINUOUS
 62
     3
100
AcDbText
 10
296.4
 20
101.5
 30
0.0
 40
3.6
  1
７
 41
0.583333
  7
EXCADSTD
 72
     5
 11
298.4
 21
101.5
 31
0.0
100
AcDbText
  0
TEXT
  5
329
100
AcDbEntity
  8
LAY-1
  6
CONTINUOUS
 62
     3
100
AcDbText
 10
296.4
 20
106.5
 30
0.0
 40
3.6
  1
８
 41
0.583333
  7
EXCADSTD
 72
     5
 11
298.4
 21
106.5
 31
0.0
100
AcDbText
  0
TEXT
  5
32A
100
AcDbEntity
  8
LAY-1
  6
CONTINUOUS
 62
     3
100
AcDbText
 10
296.4
 20
111.5
 30
0.0
 40
3.6
  1
９
 41
0.583333
  7
EXCADSTD
 72
     5
 11
298.4
 21
111.5
 31
0.0
100
AcDbText
  0
TEXT
  5
32B
100
AcDbEntity
  8
LAY-1
  6
CONTINUOUS
 62
     3
100
AcDbText
 10
303.55
 20
71.7
 30
0.0
 40
3.6
  1
本体
 41
4.375
  7
EXCADSTD
 72
     5
 11
337.922501
 21
71.7
 31
0.0
100
AcDbText
  0
TEXT
  5
32C
100
AcDbEntity
  8
LAY-1
  6
CONTINUOUS
 62
     3
100
AcDbText
 10
303.55
 20
106.7
 30
0.0
 40
3.6
  1
弁棒
 41
4.375
  7
EXCADSTD
 72
     5
 11
337.922501
 21
106.7
 31
0.0
100
AcDbText
  0
TEXT
  5
32D
100
AcDbEntity
  8
LAY-1
  6
CONTINUOUS
 62
     3
100
AcDbText
 10
303.55
 20
116.7
 30
0.0
 40
3.6
  1
弁体
 41
4.375
  7
EXCADSTD
 72
     5
 11
337.922501
 21
116.7
 31
0.0
100
AcDbText
  0
TEXT
  5
32E
100
AcDbEntity
  8
LAY-1
  6
CONTINUOUS
 62
     3
100
AcDbText
 10
303.55
 20
76.7
 30
0.0
 40
3.6
  1
カバー
 41
2.916667
  7
EXCADSTD
 72
     5
 11
341.05
 21
76.7
 31
0.0
100
AcDbText
  0
TEXT
  5
32F
100
AcDbEntity
  8
LAY-1
  6
CONTINUOUS
 62
     3
100
AcDbText
 10
303.55
 20
81.7
 30
0.0
 40
3.6
  1
調整スプリング(Ａ)
 41
0.908333
  7
EXCADSTD
 72
     5
 11
341.05
 21
81.7
 31
0.0
100
AcDbText
  0
TEXT
  5
330
100
AcDbEntity
  8
LAY-1
  6
CONTINUOUS
 62
     3
100
AcDbText
 10
303.55
 20
86.7
 30
0.0
 40
3.6
  1
カウンタースプリング
 41
0.875
  7
EXCADSTD
 72
     5
 11
341.05
 21
86.7
 31
0.0
100
AcDbText
  0
TEXT
  5
331
100
AcDbEntity
  8
LAY-1
  6
CONTINUOUS
 62
     3
100
AcDbText
 10
303.55
 20
91.7
 30
0.0
 40
3.6
  1
ダイヤフラム
 41
1.458333
  7
EXCADSTD
 72
     5
 11
341.05
 21
91.7
 31
0.0
100
AcDbText
  0
TEXT
  5
332
100
AcDbEntity
  8
LAY-1
  6
CONTINUOUS
 62
     3
100
AcDbText
 10
303.55
 20
96.7
 30
0.0
 40
3.6
  1
弁ゴム
 41
2.916667
  7
EXCADSTD
 72
     5
 11
341.05
 21
96.7
 31
0.0
100
AcDbText
  0
TEXT
  5
333
100
AcDbEntity
  8
LAY-1
  6
CONTINUOUS
 62
     3
100
AcDbText
 10
303.55
 20
101.7
 30
0.0
 40
3.6
  1
Ｏリング
 41
2.1875
  7
EXCADSTD
 72
     5
 11
341.05
 21
101.7
 31
0.0
100
AcDbText
  0
TEXT
  5
334
100
AcDbEntity
  8
LAY-1
  6
CONTINUOUS
 62
     3
100
AcDbText
 10
303.55
 20
111.7
 30
0.0
 40
3.6
  1
ノズル
 41
2.916667
  7
EXCADSTD
 72
     5
 11
341.05
 21
111.7
 31
0.0
100
AcDbText
  0
TEXT
  5
335
100
AcDbEntity
  8
LAY-1
  6
CONTINUOUS
 62
     3
100
AcDbText
 10
303.55
 20
121.7
 30
0.0
 40
3.6
  1
調整ネジ
 41
2.1875
  7
EXCADSTD
 72
     5
 11
341.05
 21
121.7
 31
0.0
100
AcDbText
  0
TEXT
  5
336
100
AcDbEntity
  8
LAY-1
  6
CONTINUOUS
 62
     3
100
AcDbText
 10
303.55
 20
126.7
 30
0.0
 40
3.6
  1
キャップ
 41
2.1875
  7
EXCADSTD
 72
     5
 11
341.05
 21
126.7
 31
0.0
100
AcDbText
  0
TEXT
  5
337
100
AcDbEntity
  8
LAY-1
  6
CONTINUOUS
 62
     3
100
AcDbText
 10
303.55
 20
131.7
 30
0.0
 40
3.6
  1
ガイド
 41
2.916667
  7
EXCADSTD
 72
     5
 11
341.05
 21
131.7
 31
0.0
100
AcDbText
  0
TEXT
  5
338
100
AcDbEntity
  8
LAY-1
  6
CONTINUOUS
 62
     3
100
AcDbText
 10
303.55
 20
136.7
 30
0.0
 40
3.6
  1
受圧板
 41
2.916667
  7
EXCADSTD
 72
     5
 11
341.05
 21
136.7
 31
0.0
100
AcDbText
  0
TEXT
  5
339
100
AcDbEntity
  8
LAY-1
  6
CONTINUOUS
 62
     3
100
AcDbText
 10
303.55
 20
141.7
 30
0.0
 40
3.6
  1
スプリング押エ
 41
1.25
  7
EXCADSTD
 72
     5
 11
341.05
 21
141.7
 31
0.0
100
AcDbText
  0
TEXT
  5
33A
100
AcDbEntity
  8
LAY-1
  6
CONTINUOUS
 62
     3
100
AcDbText
 10
303.55
 20
146.7
 30
0.0
 40
3.6
  1
連動子
 41
2.916667
  7
EXCADSTD
 72
     5
 11
341.05
 21
146.7
 31
0.0
100
AcDbText
  0
TEXT
  5
33B
100
AcDbEntity
  8
LAY-1
  6
CONTINUOUS
 62
     3
100
AcDbText
 10
303.55
 20
151.7
 30
0.0
 40
3.6
  1
底キャップ
 41
1.75
  7
EXCADSTD
 72
     5
 11
341.05
 21
151.7
 31
0.0
100
AcDbText
  0
TEXT
  5
33C
100
AcDbEntity
  8
LAY-1
  6
CONTINUOUS
 62
     3
100
AcDbText
 10
303.55
 20
156.7
 30
0.0
 40
3.6
  1
六角ボルト
 41
1.75
  7
EXCADSTD
 72
     5
 11
341.05
 21
156.7
 31
0.0
100
AcDbText
  0
TEXT
  5
33D
100
AcDbEntity
  8
LAY-1
  6
CONTINUOUS
 62
     3
100
AcDbText
 10
303.55
 20
161.7
 30
0.0
 40
3.6
  1
サラバネ座金付キナット
 41
0.795455
  7
EXCADSTD
 72
     5
 11
341.05
 21
161.7
 31
0.0
100
AcDbText
  0
TEXT
  5
33E
100
AcDbEntity
  8
LAY-1
  6
CONTINUOUS
 62
     3
100
AcDbText
 10
303.55
 20
171.7
 30
0.0
 40
3.6
  1
ネームプレート
 41
1.25
  7
EXCADSTD
 72
     5
 11
341.05
 21
171.7
 31
0.0
100
AcDbText
  0
TEXT
  5
33F
100
AcDbEntity
  8
LAY-1
  6
CONTINUOUS
 62
     3
100
AcDbText
 10
303.55
 20
176.7
 30
0.0
 40
3.6
  1
平座金
 41
2.916667
  7
EXCADSTD
 72
     5
 11
341.05
 21
176.7
 31
0.0
100
AcDbText
  0
TEXT
  5
340
100
AcDbEntity
  8
LAY-1
  6
CONTINUOUS
 62
     3
100
AcDbText
 10
303.55
 20
181.7
 30
0.0
 40
3.6
  1
ガイドキャップ
 41
1.25
  7
EXCADSTD
 72
     5
 11
341.05
 21
181.7
 31
0.0
100
AcDbText
  0
TEXT
  5
341
100
AcDbEntity
  8
LAY-1
  6
CONTINUOUS
 62
     3
100
AcDbText
 10
303.55
 20
186.7
 30
0.0
 40
3.6
  1
スピンドル
 41
1.75
  7
EXCADSTD
 72
     5
 11
341.05
 21
186.7
 31
0.0
100
AcDbText
  0
TEXT
  5
342
100
AcDbEntity
  8
LAY-1
  6
CONTINUOUS
 62
     3
100
AcDbText
 10
303.55
 20
191.7
 30
0.0
 40
3.6
  1
ガイドリング
 41
1.458333
  7
EXCADSTD
 72
     5
 11
341.05
 21
191.7
 31
0.0
100
AcDbText
  0
TEXT
  5
343
100
AcDbEntity
  8
LAY-1
  6
CONTINUOUS
 62
     3
100
AcDbText
 10
303.55
 20
196.7
 30
0.0
 40
3.6
  1
ストレーナ
 41
1.75
  7
EXCADSTD
 72
     5
 11
341.05
 21
196.7
 31
0.0
100
AcDbText
  0
TEXT
  5
344
100
AcDbEntity
  8
LAY-1
  6
CONTINUOUS
 62
     3
100
AcDbText
 10
303.55
 20
201.7
 30
0.0
 40
3.6
  1
Ｏリング
 41
2.1875
  7
EXCADSTD
 72
     5
 11
341.05
 21
201.7
 31
0.0
100
AcDbText
  0
TEXT
  5
345
100
AcDbEntity
  8
LAY-1
  6
CONTINUOUS
 62
     3
100
AcDbText
 10
303.55
 20
206.7
 30
0.0
 40
3.6
  1
調整用波形座金
 41
1.25
  7
EXCADSTD
 72
     5
 11
341.05
 21
206.7
 31
0.0
100
AcDbText
  0
TEXT
  5
346
100
AcDbEntity
  8
LAY-1
  6
CONTINUOUS
 62
     3
100
AcDbText
 10
303.55
 20
211.7
 30
0.0
 40
3.6
  1
調整スプリング(Ｂ)
 41
0.908333
  7
EXCADSTD
 72
     5
 11
341.05
 21
211.7
 31
0.0
100
AcDbText
  0
TEXT
  5
347
100
AcDbEntity
  8
LAY-1
  6
CONTINUOUS
 62
     3
100
AcDbText
 10
303.55
 20
216.7
 30
0.0
 40
3.6
  1
インサート金具
 41
1.25
  7
EXCADSTD
 72
     5
 11
341.05
 21
216.7
 31
0.0
100
AcDbText
  0
TEXT
  5
348
100
AcDbEntity
  8
LAY-1
  6
CONTINUOUS
 62
     3
100
AcDbText
 10
353.65
 20
71.6
 30
0.0
 40
3.6
  1
ＦＣＤ－Ｓ
 41
0.583333
  7
EXCADSTD
 72
     5
 11
366.15
 21
71.6
 31
0.0
100
AcDbText
  0
TEXT
  5
349
100
AcDbEntity
  8
LAY-1
  6
CONTINUOUS
 62
     3
100
AcDbText
 10
353.65
 20
86.6
 30
0.0
 40
3.6
  1
ＳＷＰＢ
 41
0.583333
  7
EXCADSTD
 72
     5
 11
363.65
 21
86.6
 31
0.0
100
AcDbText
  0
TEXT
  5
34A
100
AcDbEntity
  8
LAY-1
  6
CONTINUOUS
 62
     3
100
AcDbText
 10
353.65
 20
136.6
 30
0.0
 40
3.6
  1
ＳＳ４００
 41
0.583333
  7
EXCADSTD
 72
     5
 11
366.15
 21
136.6
 31
0.0
100
AcDbText
  0
TEXT
  5
34B
100
AcDbEntity
  8
LAY-1
  6
CONTINUOUS
 62
     3
100
AcDbText
 10
353.65
 20
141.6
 30
0.0
 40
3.6
  1
ＳＳ４００
 41
0.583333
  7
EXCADSTD
 72
     5
 11
366.15
 21
141.6
 31
0.0
100
AcDbText
  0
TEXT
  5
34C
100
AcDbEntity
  8
LAY-1
  6
CONTINUOUS
 62
     3
100
AcDbText
 10
353.65
 20
156.6
 30
0.0
 40
3.6
  1
ＳＳ４００
 41
0.583333
  7
EXCADSTD
 72
     5
 11
366.15
 21
156.6
 31
0.0
100
AcDbText
  0
TEXT
  5
34D
100
AcDbEntity
  8
LAY-1
  6
CONTINUOUS
 62
     3
100
AcDbText
 10
353.65
 20
161.6
 30
0.0
 40
3.6
  1
ＳＳ４００
 41
0.583333
  7
EXCADSTD
 72
     5
 11
366.15
 21
161.6
 31
0.0
100
AcDbText
  0
TEXT
  5
34E
100
AcDbEntity
  8
LAY-1
  6
CONTINUOUS
 62
     3
100
AcDbText
 10
373.65
 20
161.6
 30
0.0
 40
3.6
  1
Ｍ１２
 41
0.583333
  7
EXCADSTD
 72
     5
 11
381.15
 21
161.6
 31
0.0
100
AcDbText
  0
TEXT
  5
34F
100
AcDbEntity
  8
LAY-1
  6
CONTINUOUS
 62
     3
100
AcDbText
 10
373.65
 20
206.6
 30
0.0
 40
3.6
  1
３種　１０
 41
0.84
  7
EXCADSTD
 72
     5
 11
391.65
 21
206.6
 31
0.0
100
AcDbText
  0
TEXT
  5
350
100
AcDbEntity
  8
LAY-1
  6
CONTINUOUS
 62
     3
100
AcDbText
 10
353.65
 20
201.6
 30
0.0
 40
3.6
  1
ＮＢＲ
 41
0.583333
  7
EXCADSTD
 72
     5
 11
361.15
 21
201.6
 31
0.0
100
AcDbText
  0
TEXT
  5
351
100
AcDbEntity
  8
LAY-1
  6
CONTINUOUS
 62
     3
100
AcDbText
 10
353.65
 20
206.6
 30
0.0
 40
3.6
  1
バネ用鋼
 41
0.84
  7
EXCADSTD
 72
     5
 11
368.05
 21
206.6
 31
0.0
100
AcDbText
  0
TEXT
  5
352
100
AcDbEntity
  8
LAY-1
  6
CONTINUOUS
 62
     3
100
AcDbText
 10
353.65
 20
211.6
 30
0.0
 40
3.6
  1
ＳＷＰＡ
 41
0.583333
  7
EXCADSTD
 72
     5
 11
363.65
 21
211.6
 31
0.0
100
AcDbText
  0
TEXT
  5
353
100
AcDbEntity
  8
LAY-1
  6
CONTINUOUS
 62
     3
100
AcDbText
 10
353.65
 20
111.6
 30
0.0
 40
3.6
  1
ＳＵＳ３０４
 41
0.583333
  7
EXCADSTD
 72
     5
 11
368.65
 21
111.6
 31
0.0
100
AcDbText
  0
TEXT
  5
354
100
AcDbEntity
  8
LAY-1
  6
CONTINUOUS
 62
     3
100
AcDbText
 10
353.65
 20
116.6
 30
0.0
 40
3.6
  1
Ｃ３６０４Ｂ
 41
0.583333
  7
EXCADSTD
 72
     5
 11
368.65
 21
116.6
 31
0.0
100
AcDbText
  0
TEXT
  5
355
100
AcDbEntity
  8
LAY-1
  6
CONTINUOUS
 62
     3
100
AcDbText
 10
353.65
 20
126.6
 30
0.0
 40
3.6
  1
Ｃ３６０４Ｂ
 41
0.583333
  7
EXCADSTD
 72
     5
 11
368.65
 21
126.6
 31
0.0
100
AcDbText
  0
TEXT
  5
356
100
AcDbEntity
  8
LAY-1
  6
CONTINUOUS
 62
     3
100
AcDbText
 10
353.65
 20
131.6
 30
0.0
 40
3.6
  1
ＳＵＳ３０３
 41
0.583333
  7
EXCADSTD
 72
     5
 11
368.65
 21
131.6
 31
0.0
100
AcDbText
  0
TEXT
  5
357
100
AcDbEntity
  8
LAY-1
  6
CONTINUOUS
 62
     3
100
AcDbText
 10
353.65
 20
146.6
 30
0.0
 40
3.6
  1
Ｃ３６０４Ｂ
 41
0.583333
  7
EXCADSTD
 72
     5
 11
368.65
 21
146.6
 31
0.0
100
AcDbText
  0
TEXT
  5
358
100
AcDbEntity
  8
LAY-1
  6
CONTINUOUS
 62
     3
100
AcDbText
 10
353.65
 20
171.6
 30
0.0
 40
3.6
  1
Ａ１１００Ｐ
 41
0.583333
  7
EXCADSTD
 72
     5
 11
368.65
 21
171.6
 31
0.0
100
AcDbText
  0
TEXT
  5
359
100
AcDbEntity
  8
LAY-1
  6
CONTINUOUS
 62
     3
100
AcDbText
 10
353.65
 20
176.6
 30
0.0
 40
3.6
  1
ＳＵＳ３０４
 41
0.583333
  7
EXCADSTD
 72
     5
 11
368.65
 21
176.6
 31
0.0
100
AcDbText
  0
TEXT
  5
35A
100
AcDbEntity
  8
LAY-1
  6
CONTINUOUS
 62
     3
100
AcDbText
 10
353.65
 20
181.6
 30
0.0
 40
3.6
  1
ＳＵＳ３０３
 41
0.583333
  7
EXCADSTD
 72
     5
 11
368.65
 21
181.6
 31
0.0
100
AcDbText
  0
TEXT
  5
35B
100
AcDbEntity
  8
LAY-1
  6
CONTINUOUS
 62
     3
100
AcDbText
 10
353.65
 20
186.6
 30
0.0
 40
3.6
  1
Ｃ３６０４Ｂ
 41
0.583333
  7
EXCADSTD
 72
     5
 11
368.65
 21
186.6
 31
0.0
100
AcDbText
  0
TEXT
  5
35C
100
AcDbEntity
  8
LAY-1
  6
CONTINUOUS
 62
     3
100
AcDbText
 10
353.65
 20
191.6
 30
0.0
 40
3.6
  1
Ｃ３６０４Ｂ
 41
0.583333
  7
EXCADSTD
 72
     5
 11
368.65
 21
191.6
 31
0.0
100
AcDbText
  0
TEXT
  5
35D
100
AcDbEntity
  8
LAY-1
  6
CONTINUOUS
 62
     1
100
AcDbText
 10
353.65
 20
196.6
 30
0.0
 40
3.6
  1
ＳＵＳ３０４－Ｗ１／２Ｈ
 41
0.364583
  7
EXCADSTD
 72
     5
 11
372.4
 21
196.6
 31
0.0
100
AcDbText
  0
TEXT
  5
35E
100
AcDbEntity
  8
LAY-1
  6
CONTINUOUS
 62
     3
100
AcDbText
 10
353.65
 20
216.6
 30
0.0
 40
3.6
  1
Ｃ３６０４Ｂ
 41
0.583333
  7
EXCADSTD
 72
     5
 11
368.65
 21
216.6
 31
0.0
100
AcDbText
  0
LINE
  5
35F
100
AcDbEntity
  8
LAY-1
  6
CONTINUOUS
 62
     1
100
AcDbLine
 10
187.194
 20
100.133975
 30
0.0
 11
187.194
 21
95.712424
 31
0.0
  0
LINE
  5
360
100
AcDbEntity
  8
LAY-1
  6
CONTINUOUS
 62
     1
100
AcDbLine
 10
187.6
 20
100.837187
 30
0.0
 11
187.194
 21
100.133975
 31
0.0
  0
LINE
  5
361
100
AcDbEntity
  8
LAY-1
  6
CONTINUOUS
 62
     1
100
AcDbLine
 10
172.6
 20
100.837187
 30
0.0
 11
173.006
 21
100.133975
 31
0.0
  0
LINE
  5
362
100
AcDbEntity
  8
LAY-1
  6
CONTINUOUS
 62
     1
100
AcDbLine
 10
173.006
 20
100.133975
 30
0.0
 11
173.006
 21
95.727975
 31
0.0
  0
LINE
  5
363
100
AcDbEntity
  8
LAY-1
  6
CONTINUOUS
 62
     7
100
AcDbLine
 10
186.1
 20
86.633975
 30
0.0
 11
182.85
 21
86.633975
 31
0.0
  0
LINE
  5
364
100
AcDbEntity
  8
LAY-1
  6
CONTINUOUS
 62
     7
100
AcDbLine
 10
184.6
 20
103.133975
 30
0.0
 11
188.85
 21
103.133975
 31
0.0
  0
LINE
  5
365
100
AcDbEntity
  8
LAY-1
  6
CONTINUOUS
 62
     7
100
AcDbLine
 10
187.194
 20
100.133975
 30
0.0
 11
187.6
 21
100.133975
 31
0.0
  0
LINE
  5
366
100
AcDbEntity
  8
LAY-1
  6
CONTINUOUS
 62
     7
100
AcDbLine
 10
186.6
 20
87.133975
 30
0.0
 11
186.6
 21
95.133975
 31
0.0
  0
LINE
  5
367
100
AcDbEntity
  8
LAY-1
  6
CONTINUOUS
 62
     7
100
AcDbLine
 10
187.6
 20
101.133975
 30
0.0
 11
187.6
 21
96.133975
 31
0.0
  0
LINE
  5
368
100
AcDbEntity
  8
LAY-1
  6
CONTINUOUS
 62
     7
100
AcDbLine
 10
188.85
 20
101.133975
 30
0.0
 11
188.85
 21
103.133975
 31
0.0
  0
LINE
  5
369
100
AcDbEntity
  8
LAY-1
  6
CONTINUOUS
 62
     7
100
AcDbLine
 10
187.6
 20
96.133975
 30
0.0
 11
186.6
 21
95.133975
 31
0.0
  0
LINE
  5
36A
100
AcDbEntity
  8
LAY-1
  6
CONTINUOUS
 62
     7
100
AcDbLine
 10
182.85
 20
86.633975
 30
0.0
 11
182.6
 21
86.633975
 31
0.0
  0
ARC
  5
36B
100
AcDbEntity
  8
LAY-1
  6
CONTINUOUS
 62
     7
100
AcDbCircle
 10
182.85
 20
86.883975
 30
0.0
 40
0.25
100
AcDbArc
 50
180.0
 51
270.0
  0
ARC
  5
36C
100
AcDbEntity
  8
LAY-1
  6
CONTINUOUS
 62
     7
100
AcDbCircle
 10
182.85
 20
92.883975
 30
0.0
 40
0.25
100
AcDbArc
 50
90.0
 51
180.0
  0
LINE
  5
36D
100
AcDbEntity
  8
LAY-1
  6
CONTINUOUS
 62
     7
100
AcDbLine
 10
172.6
 20
96.133975
 30
0.0
 11
173.6
 21
95.133975
 31
0.0
  0
LINE
  5
36E
100
AcDbEntity
  8
LAY-1
  6
CONTINUOUS
 62
     7
100
AcDbLine
 10
173.6
 20
87.133975
 30
0.0
 11
173.6
 21
95.133975
 31
0.0
  0
LINE
  5
36F
100
AcDbEntity
  8
LAY-1
  6
CONTINUOUS
 62
     7
100
AcDbLine
 10
171.35
 20
101.133975
 30
0.0
 11
171.35
 21
103.133975
 31
0.0
  0
LINE
  5
370
100
AcDbEntity
  8
LAY-1
  6
CONTINUOUS
 62
     7
100
AcDbLine
 10
172.6
 20
101.133975
 30
0.0
 11
172.6
 21
96.133975
 31
0.0
  0
LINE
  5
371
100
AcDbEntity
  8
LAY-1
  6
CONTINUOUS
 62
     7
100
AcDbLine
 10
173.006
 20
100.133975
 30
0.0
 11
172.6
 21
100.133975
 31
0.0
  0
LINE
  5
372
100
AcDbEntity
  8
LAY-1
  6
CONTINUOUS
 62
     7
100
AcDbLine
 10
174.1
 20
86.633975
 30
0.0
 11
177.35
 21
86.633975
 31
0.0
  0
ARC
  5
373
100
AcDbEntity
  8
LAY-1
  6
CONTINUOUS
 62
     7
100
AcDbCircle
 10
177.35
 20
86.883975
 30
0.0
 40
0.25
100
AcDbArc
 50
270.0
 51
0.0
  0
LINE
  5
374
100
AcDbEntity
  8
LAY-1
  6
CONTINUOUS
 62
     7
100
AcDbLine
 10
177.35
 20
86.633975
 30
0.0
 11
177.6
 21
86.633975
 31
0.0
  0
LINE
  5
375
100
AcDbEntity
  8
LAY-1
  6
CONTINUOUS
 62
     7
100
AcDbLine
 10
186.1
 20
86.633975
 30
0.0
 11
186.6
 21
87.133975
 31
0.0
  0
LINE
  5
376
100
AcDbEntity
  8
LAY-1
  6
CONTINUOUS
 62
     7
100
AcDbLine
 10
174.1
 20
86.633975
 30
0.0
 11
173.6
 21
87.133975
 31
0.0
  0
ARC
  5
377
100
AcDbEntity
  8
LAY-1
  6
CONTINUOUS
 62
     7
100
AcDbCircle
 10
177.35
 20
92.883975
 30
0.0
 40
0.25
100
AcDbArc
 50
0.0
 51
90.0
  0
LINE
  5
378
100
AcDbEntity
  8
LAY-1
  6
CONTINUOUS
 62
     7
100
AcDbLine
 10
175.6
 20
103.133975
 30
0.0
 11
171.35
 21
103.133975
 31
0.0
  0
LINE
  5
379
100
AcDbEntity
  8
LAY-1
  6
CONTINUOUS
 62
     7
100
AcDbLine
 10
187.6
 20
69.577975
 30
0.0
 11
187.6
 21
67.483975
 31
0.0
  0
LINE
  5
37A
100
AcDbEntity
  8
LAY-1
  6
CONTINUOUS
 62
     7
100
AcDbLine
 10
172.6
 20
69.577975
 30
0.0
 11
172.6
 21
67.483975
 31
0.0
  0
TEXT
  5
37B
100
AcDbEntity
  8
LAY-1
  6
CONTINUOUS
 62
     3
100
AcDbText
 10
353.65
 20
101.6
 30
0.0
 40
3.6
  1
Ｎ Ｂ Ｒ
 41
0.502222
  7
EXCADSTD
 72
     5
 11
363.65
 21
101.6
 31
0.0
100
AcDbText
  0
TEXT
  5
37C
100
AcDbEntity
  8
LAY-1
  6
CONTINUOUS
 62
     3
100
AcDbText
 10
353.65
 20
96.6
 30
0.0
 40
3.6
  1
Ｎ Ｂ Ｒ
 41
0.502222
  7
EXCADSTD
 72
     5
 11
363.65
 21
96.6
 31
0.0
100
AcDbText
  0
TEXT
  5
37D
100
AcDbEntity
  8
LAY-1
  6
CONTINUOUS
 62
     3
100
AcDbText
 10
353.65
 20
91.6
 30
0.0
 40
3.6
  1
Ｎ Ｂ Ｒ
 41
0.502222
  7
EXCADSTD
 72
     5
 11
363.65
 21
91.6
 31
0.0
100
AcDbText
  0
LINE
  5
37E
100
AcDbEntity
  8
LAY-1
  6
CONTINUOUS
 62
     7
100
AcDbLine
 10
227.1
 20
121.475074
 30
0.0
 11
227.1
 21
105.475074
 31
0.0
  0
LINE
  5
37F
100
AcDbEntity
  8
LAY-1
  6
CONTINUOUS
 62
     1
100
AcDbLine
 10
227.35
 20
108.133975
 30
0.0
 11
227.35
 21
121.475074
 31
0.0
  0
LINE
  5
380
100
AcDbEntity
  8
LAY-1
  6
CONTINUOUS
 62
     7
100
AcDbLine
 10
227.1
 20
108.133975
 30
0.0
 11
233.1
 21
108.133975
 31
0.0
  0
LINE
  5
381
100
AcDbEntity
  8
LAY-1
  6
CONTINUOUS
 62
     1
100
AcDbLine
 10
227.35
 20
108.133975
 30
0.0
 11
227.1
 21
107.700962
 31
0.0
  0
LINE
  5
382
100
AcDbEntity
  8
LAY-1
  6
CONTINUOUS
 62
     1
100
AcDbLine
 10
232.85
 20
121.475074
 30
0.0
 11
232.85
 21
108.133975
 31
0.0
  0
LINE
  5
383
100
AcDbEntity
  8
LAY-1
  6
CONTINUOUS
 62
     7
100
AcDbLine
 10
233.1
 20
105.475074
 30
0.0
 11
233.1
 21
121.475074
 31
0.0
  0
LINE
  5
384
100
AcDbEntity
  8
LAY-1
  6
CONTINUOUS
 62
     1
100
AcDbLine
 10
233.1
 20
107.700962
 30
0.0
 11
232.85
 21
108.133975
 31
0.0
  0
LINE
  5
385
100
AcDbEntity
  8
LAY-1
  6
CONTINUOUS
 62
     7
100
AcDbLine
 10
233.1
 20
130.225074
 30
0.0
 11
233.1
 21
127.825074
 31
0.0
  0
LINE
  5
386
100
AcDbEntity
  8
LAY-1
  6
CONTINUOUS
 62
     7
100
AcDbLine
 10
227.1
 20
130.225074
 30
0.0
 11
227.1
 21
127.825074
 31
0.0
  0
LINE
  5
387
100
AcDbEntity
  8
LAY-1
  6
CONTINUOUS
 62
     1
100
AcDbLine
 10
227.35
 20
127.825074
 30
0.0
 11
227.35
 21
130.475074
 31
0.0
  0
LINE
  5
388
100
AcDbEntity
  8
LAY-1
  6
CONTINUOUS
 62
     7
100
AcDbLine
 10
227.1
 20
130.225074
 30
0.0
 11
233.1
 21
130.225074
 31
0.0
  0
LINE
  5
389
100
AcDbEntity
  8
LAY-1
  6
CONTINUOUS
 62
     7
100
AcDbLine
 10
232.85
 20
130.475074
 30
0.0
 11
227.35
 21
130.475074
 31
0.0
  0
LINE
  5
38A
100
AcDbEntity
  8
LAY-1
  6
CONTINUOUS
 62
     7
100
AcDbLine
 10
233.1
 20
130.225074
 30
0.0
 11
232.85
 21
130.475074
 31
0.0
  0
LINE
  5
38B
100
AcDbEntity
  8
LAY-1
  6
CONTINUOUS
 62
     7
100
AcDbLine
 10
227.1
 20
130.225074
 30
0.0
 11
227.35
 21
130.475074
 31
0.0
  0
LINE
  5
38C
100
AcDbEntity
  8
LAY-1
  6
CONTINUOUS
 62
     1
100
AcDbLine
 10
232.85
 20
127.825074
 30
0.0
 11
232.85
 21
130.475074
 31
0.0
  0
ARC
  5
38D
100
AcDbEntity
  8
LAY-1
  6
CONTINUOUS
 62
     7
100
AcDbCircle
 10
180.1
 20
225.710857
 30
0.0
 40
175.0
100
AcDbArc
 50
272.112237
 51
274.803508
  0
TEXT
  5
38E
100
AcDbEntity
  8
LAY-1
  6
CONTINUOUS
 62
     3
100
AcDbText
 10
353.65
 20
106.6
 30
0.0
 40
3.6
  1
ＳＵＳ３０４Ｗ
 41
0.583333
  7
EXCADSTD
 72
     5
 11
371.15
 21
106.6
 31
0.0
100
AcDbText
  0
LINE
  5
38F
100
AcDbEntity
  8
LAY-1
  6
CONTINUOUS
 62
     7
100
AcDbLine
 10
233.1
 20
113.975074
 30
0.0
 11
236.1
 21
113.975074
 31
0.0
  0
LINE
  5
390
100
AcDbEntity
  8
LAY-1
  6
CONTINUOUS
 62
     7
100
AcDbLine
 10
233.1
 20
112.983975
 30
0.0
 11
236.1
 21
112.983975
 31
0.0
  0
LINE
  5
391
100
AcDbEntity
  8
LAY-1
  6
CONTINUOUS
 62
     7
100
AcDbLine
 10
189.6
 20
43.483975
 30
0.0
 11
195.1
 21
43.483975
 31
0.0
  0
LINE
  5
392
100
AcDbEntity
  8
LAY-1
  6
CONTINUOUS
 62
     7
100
AcDbLine
 10
230.1
 20
122.088214
 30
0.0
 11
224.1
 21
122.088214
 31
0.0
  0
LINE
  5
393
100
AcDbEntity
  8
LAY-1
  6
CONTINUOUS
 62
     7
100
AcDbLine
 10
224.1
 20
122.088214
 30
0.0
 11
224.1
 21
121.475074
 31
0.0
  0
LINE
  5
394
100
AcDbEntity
  8
LAY-1
  6
CONTINUOUS
 62
     7
100
AcDbLine
 10
224.1
 20
122.088214
 30
0.0
 11
226.85
 21
122.825074
 31
0.0
  0
LINE
  5
395
100
AcDbEntity
  8
LAY-1
  6
CONTINUOUS
 62
     7
100
AcDbLine
 10
224.615172
 20
122.825074
 30
0.0
 11
230.1
 21
122.825074
 31
0.0
  0
LINE
  5
396
100
AcDbEntity
  8
LAY-1
  6
CONTINUOUS
 62
     7
100
AcDbLine
 10
227.357586
 20
127.400821
 30
0.0
 11
227.357586
 21
122.825074
 31
0.0
  0
LINE
  5
397
100
AcDbEntity
  8
LAY-1
  6
CONTINUOUS
 62
     7
100
AcDbLine
 10
224.615172
 20
127.400821
 30
0.0
 11
224.615172
 21
122.825074
 31
0.0
  0
ARC
  5
398
100
AcDbEntity
  8
LAY-1
  6
CONTINUOUS
 62
     7
100
AcDbCircle
 10
225.986379
 20
125.397042
 30
0.0
 40
2.428032
100
AcDbArc
 50
55.615753
 51
124.384247
  0
LINE
  5
399
100
AcDbEntity
  8
LAY-1
  6
CONTINUOUS
 62
     7
100
AcDbLine
 10
230.1
 20
127.825074
 30
0.0
 11
225.35
 21
127.825074
 31
0.0
  0
LINE
  5
39A
100
AcDbEntity
  8
LAY-1
  6
CONTINUOUS
 62
     7
100
AcDbLine
 10
225.35
 20
127.825074
 30
0.0
 11
224.615172
 21
127.400821
 31
0.0
  0
ARC
  5
39B
100
AcDbEntity
  8
LAY-1
  6
CONTINUOUS
 62
     7
100
AcDbCircle
 10
230.1
 20
118.749327
 30
0.0
 40
9.075747
100
AcDbArc
 50
90.0
 51
107.587954
  0
ARC
  5
39C
100
AcDbEntity
  8
LAY-1
  6
CONTINUOUS
 62
     7
100
AcDbCircle
 10
230.1
 20
118.749327
 30
0.0
 40
9.075747
100
AcDbArc
 50
72.412046
 51
90.0
  0
LINE
  5
39D
100
AcDbEntity
  8
LAY-1
  6
CONTINUOUS
 62
     7
100
AcDbLine
 10
230.1
 20
127.825074
 30
0.0
 11
234.85
 21
127.825074
 31
0.0
  0
ARC
  5
39E
100
AcDbEntity
  8
LAY-1
  6
CONTINUOUS
 62
     7
100
AcDbCircle
 10
234.213621
 20
125.397042
 30
0.0
 40
2.428032
100
AcDbArc
 50
55.615753
 51
124.384247
  0
LINE
  5
39F
100
AcDbEntity
  8
LAY-1
  6
CONTINUOUS
 62
     7
100
AcDbLine
 10
232.842414
 20
127.400821
 30
0.0
 11
232.842414
 21
122.825074
 31
0.0
  0
LINE
  5
3A0
100
AcDbEntity
  8
LAY-1
  6
CONTINUOUS
 62
     7
100
AcDbLine
 10
234.85
 20
127.825074
 30
0.0
 11
235.584828
 21
127.400821
 31
0.0
  0
LINE
  5
3A1
100
AcDbEntity
  8
LAY-1
  6
CONTINUOUS
 62
     7
100
AcDbLine
 10
235.584828
 20
127.400821
 30
0.0
 11
235.584828
 21
122.825074
 31
0.0
  0
LINE
  5
3A2
100
AcDbEntity
  8
LAY-1
  6
CONTINUOUS
 62
     7
100
AcDbLine
 10
235.584828
 20
122.825074
 30
0.0
 11
230.1
 21
122.825074
 31
0.0
  0
LINE
  5
3A3
100
AcDbEntity
  8
LAY-1
  6
CONTINUOUS
 62
     7
100
AcDbLine
 10
236.1
 20
122.088214
 30
0.0
 11
233.35
 21
122.825074
 31
0.0
  0
LINE
  5
3A4
100
AcDbEntity
  8
LAY-1
  6
CONTINUOUS
 62
     7
100
AcDbLine
 10
230.1
 20
122.088214
 30
0.0
 11
236.1
 21
122.088214
 31
0.0
  0
LINE
  5
3A5
100
AcDbEntity
  8
LAY-1
  6
CONTINUOUS
 62
     7
100
AcDbLine
 10
236.1
 20
122.088214
 30
0.0
 11
236.1
 21
121.475074
 31
0.0
  0
LINE
  5
3A6
100
AcDbEntity
  8
LAY-1
  6
CONTINUOUS
 62
     7
100
AcDbLine
 10
224.1
 20
121.475074
 30
0.0
 11
236.1
 21
121.475074
 31
0.0
  0
LINE
  5
3A7
100
AcDbEntity
  8
LAY-1
  6
CONTINUOUS
 62
     1
100
AcDbLine
 10
292.4
 20
221.0
 30
0.0
 11
402.0
 21
221.0
 31
0.0
  0
LINE
  5
3A8
100
AcDbEntity
  8
LAY-1
  6
CONTINUOUS
 62
     1
100
AcDbLine
 10
292.4
 20
226.0
 30
0.0
 11
402.0
 21
226.0
 31
0.0
  0
LINE
  5
3A9
100
AcDbEntity
  8
LAY-1
  6
CONTINUOUS
 62
     1
100
AcDbLine
 10
292.4
 20
231.0
 30
0.0
 11
402.0
 21
231.0
 31
0.0
  0
TEXT
  5
3AA
100
AcDbEntity
  8
LAY-1
  6
CONTINUOUS
 62
     3
100
AcDbText
 10
346.25
 20
221.5
 30
0.0
 40
3.6
  1
２
 41
0.583333
  7
EXCADSTD
 72
     5
 11
348.25
 21
221.5
 31
0.0
100
AcDbText
  0
TEXT
  5
3AB
100
AcDbEntity
  8
LAY-1
  6
CONTINUOUS
 62
     3
100
AcDbText
 10
346.25
 20
226.5
 30
0.0
 40
3.6
  1
１
 41
0.583333
  7
EXCADSTD
 72
     5
 11
348.25
 21
226.5
 31
0.0
100
AcDbText
  0
TEXT
  5
3AC
100
AcDbEntity
  8
LAY-1
  6
CONTINUOUS
 62
     3
100
AcDbText
 10
294.81
 20
221.905
 30
0.0
 40
3.6
  1
３１
 41
0.583333
  7
EXCADSTD
 72
     5
 11
299.393
 21
221.905
 31
0.0
100
AcDbText
  0
TEXT
  5
3AD
100
AcDbEntity
  8
LAY-1
  6
CONTINUOUS
 62
     3
100
AcDbText
 10
294.96
 20
226.755
 30
0.0
 40
3.6
  1
３２
 41
0.583333
  7
EXCADSTD
 72
     5
 11
299.543
 21
226.755
 31
0.0
100
AcDbText
  0
TEXT
  5
3AE
100
AcDbEntity
  8
LAY-1
  6
CONTINUOUS
 62
     3
100
AcDbText
 10
303.55
 20
221.7
 30
0.0
 40
3.6
  1
打込ネジ鋲
 41
1.743
  7
EXCADSTD
 72
     5
 11
340.9
 21
221.7
 31
0.0
100
AcDbText
  0
TEXT
  5
3AF
100
AcDbEntity
  8
LAY-1
  6
CONTINUOUS
 62
     3
100
AcDbText
 10
353.65
 20
226.6
 30
0.0
 40
3.6
  1
Ａ１１００Ｐ
 41
0.583333
  7
EXCADSTD
 72
     5
 11
368.65
 21
226.6
 31
0.0
100
AcDbText
  0
TEXT
  5
3B0
100
AcDbEntity
  8
LAY-1
  6
CONTINUOUS
 62
     1
100
AcDbText
 10
353.65
 20
221.6
 30
0.0
 40
3.6
  1
Ｃ２７００－Ｗ１／８Ｈ
 41
0.366391
  7
EXCADSTD
 72
     5
 11
370.922727
 21
221.6
 31
0.0
100
AcDbText
  0
TEXT
  5
3B1
100
AcDbEntity
  8
LAY-1
  6
CONTINUOUS
 62
     3
100
AcDbText
 10
304.45
 20
56.3
 30
0.0
 40
5.0
  1
ＧＭＦ－２００　二段式一次用調整器
 41
0.84
  7
EXCADSTD
 72
     5
 11
389.45
 21
56.3
 31
0.0
100
AcDbText
  0
TEXT
  5
3B2
100
AcDbEntity
  8
LAY-1
  6
CONTINUOUS
 62
     3
100
AcDbText
 10
352.419024
 20
81.794234
 30
0.0
 40
3.6
  1
ＳＷＯＳＣ－Ｂ
 41
0.511667
  7
EXCADSTD
 72
     5
 11
367.769024
 21
81.794234
 31
0.0
100
AcDbText
  0
TEXT
  5
3B3
100
AcDbEntity
  8
LAY-1
  6
CONTINUOUS
 62
     3
100
AcDbText
 10
353.65
 20
151.6
 30
0.0
 40
3.6
  1
Ｃ３７７１Ｂ
 41
0.583333
  7
EXCADSTD
 72
     5
 11
368.65
 21
151.6
 31
0.0
100
AcDbText
  0
TEXT
  5
3B4
100
AcDbEntity
  8
LAY-1
  6
CONTINUOUS
 62
     3
100
AcDbText
 10
303.55
 20
226.7
 30
0.0
 40
3.6
  1
大臣認定票
 41
1.222667
  7
EXCADSTD
 72
     5
 11
329.75
 21
226.7
 31
0.0
100
AcDbText
  0
LINE
  5
3B5
100
AcDbEntity
  8
LAY-1
  6
CONTINUOUS
 62
     7
100
AcDbLine
 10
187.6
 20
113.633975
 30
0.0
 11
187.75
 21
113.893782
 31
0.0
  0
LINE
  5
3B6
100
AcDbEntity
  8
LAY-1
  6
CONTINUOUS
 62
     7
100
AcDbLine
 10
187.6
 20
113.633975
 30
0.0
 11
187.45
 21
113.893782
 31
0.0
  0
LINE
  5
3B7
100
AcDbEntity
  8
LAY-1
  6
CONTINUOUS
 62
     7
100
AcDbLine
 10
185.85
 20
113.633975
 30
0.0
 11
186.0
 21
113.893782
 31
0.0
  0
LINE
  5
3B8
100
AcDbEntity
  8
LAY-1
  6
CONTINUOUS
 62
     7
100
AcDbLine
 10
185.85
 20
113.633975
 30
0.0
 11
185.7
 21
113.893782
 31
0.0
  0
LINE
  5
3B9
100
AcDbEntity
  8
LAY-1
  6
CONTINUOUS
 62
     7
100
AcDbLine
 10
188.6
 20
113.733975
 30
0.0
 11
188.6
 21
113.383975
 31
0.0
  0
ARC
  5
3BA
100
AcDbEntity
  8
LAY-1
  6
CONTINUOUS
 62
     7
100
AcDbCircle
 10
188.45
 20
113.733975
 30
0.0
 40
0.15
100
AcDbArc
 50
0.0
 51
90.0
  0
LINE
  5
3BB
100
AcDbEntity
  8
LAY-1
  6
CONTINUOUS
 62
     7
100
AcDbLine
 10
188.6
 20
113.383975
 30
0.0
 11
188.85
 21
113.239637
 31
0.0
  0
ARC
  5
3BC
100
AcDbEntity
  8
LAY-1
  6
CONTINUOUS
 62
     7
100
AcDbCircle
 10
183.35
 20
113.883975
 30
0.0
 40
0.25
100
AcDbArc
 50
180.0
 51
270.0
  0
LINE
  5
3BD
100
AcDbEntity
  8
LAY-1
  6
CONTINUOUS
 62
     7
100
AcDbLine
 10
184.1
 20
113.883975
 30
0.0
 11
184.1
 21
113.633975
 31
0.0
  0
LINE
  5
3BE
100
AcDbEntity
  8
LAY-1
  6
CONTINUOUS
 62
     7
100
AcDbLine
 10
184.1
 20
113.633975
 30
0.0
 11
183.35
 21
113.633975
 31
0.0
  0
LINE
  5
3BF
100
AcDbEntity
  8
LAY-1
  6
CONTINUOUS
 62
     7
100
AcDbLine
 10
188.45
 20
113.883975
 30
0.0
 11
183.1
 21
113.883975
 31
0.0
  0
LINE
  5
3C0
100
AcDbEntity
  8
LAY-1
  6
CONTINUOUS
 62
     7
100
AcDbLine
 10
176.1
 20
113.883975
 30
0.0
 11
176.1
 21
113.633975
 31
0.0
  0
LINE
  5
3C1
100
AcDbEntity
  8
LAY-1
  6
CONTINUOUS
 62
     7
100
AcDbLine
 10
172.6
 20
113.633975
 30
0.0
 11
172.45
 21
113.893782
 31
0.0
  0
LINE
  5
3C2
100
AcDbEntity
  8
LAY-1
  6
CONTINUOUS
 62
     7
100
AcDbLine
 10
172.6
 20
113.633975
 30
0.0
 11
172.75
 21
113.893782
 31
0.0
  0
LINE
  5
3C3
100
AcDbEntity
  8
LAY-1
  6
CONTINUOUS
 62
     7
100
AcDbLine
 10
174.35
 20
113.633975
 30
0.0
 11
174.2
 21
113.893782
 31
0.0
  0
LINE
  5
3C4
100
AcDbEntity
  8
LAY-1
  6
CONTINUOUS
 62
     7
100
AcDbLine
 10
174.35
 20
113.633975
 30
0.0
 11
174.5
 21
113.893782
 31
0.0
  0
LINE
  5
3C5
100
AcDbEntity
  8
LAY-1
  6
CONTINUOUS
 62
     7
100
AcDbLine
 10
176.1
 20
113.633975
 30
0.0
 11
176.85
 21
113.633975
 31
0.0
  0
ARC
  5
3C6
100
AcDbEntity
  8
LAY-1
  6
CONTINUOUS
 62
     7
100
AcDbCircle
 10
176.85
 20
113.883975
 30
0.0
 40
0.25
100
AcDbArc
 50
270.0
 51
0.0
  0
LINE
  5
3C7
100
AcDbEntity
  8
LAY-1
  6
CONTINUOUS
 62
     7
100
AcDbLine
 10
171.75
 20
113.883975
 30
0.0
 11
177.1
 21
113.883975
 31
0.0
  0
ARC
  5
3C8
100
AcDbEntity
  8
LAY-1
  6
CONTINUOUS
 62
     7
100
AcDbCircle
 10
171.75
 20
113.733975
 30
0.0
 40
0.15
100
AcDbArc
 50
90.0
 51
180.0
  0
LINE
  5
3C9
100
AcDbEntity
  8
LAY-1
  6
CONTINUOUS
 62
     7
100
AcDbLine
 10
171.6
 20
113.733975
 30
0.0
 11
171.6
 21
113.383975
 31
0.0
  0
LINE
  5
3CA
100
AcDbEntity
  8
LAY-1
  6
CONTINUOUS
 62
     7
100
AcDbLine
 10
171.6
 20
113.383975
 30
0.0
 11
171.35
 21
113.239637
 31
0.0
  0
LINE
  5
3CB
100
AcDbEntity
  8
LAY-1
  6
CONTINUOUS
 62
     7
100
AcDbLine
 10
171.35
 20
113.239637
 30
0.0
 11
171.35
 21
108.410475
 31
0.0
  0
LINE
  5
3CC
100
AcDbEntity
  8
LAY-1
  6
CONTINUOUS
 62
     7
100
AcDbLine
 10
188.85
 20
113.239637
 30
0.0
 11
188.85
 21
108.410475
 31
0.0
  0
LINE
  5
3CD
100
AcDbEntity
  8
LAY-1
  6
CONTINUOUS
 62
     7
100
AcDbLine
 10
188.85
 20
108.383975
 30
0.0
 11
181.35
 21
108.383975
 31
0.0
  0
LINE
  5
3CE
100
AcDbEntity
  8
LAY-1
  6
CONTINUOUS
 62
     7
100
AcDbLine
 10
181.6
 20
108.383975
 30
0.0
 11
181.6
 21
110.383975
 31
0.0
  0
LINE
  5
3CF
100
AcDbEntity
  8
LAY-1
  6
CONTINUOUS
 62
     7
100
AcDbLine
 10
182.35
 20
110.383975
 30
0.0
 11
181.418157
 21
110.383975
 31
0.0
  0
LINE
  5
3D0
100
AcDbEntity
  8
LAY-1
  6
CONTINUOUS
 62
     7
100
AcDbLine
 10
182.35
 20
110.383975
 30
0.0
 11
182.35
 21
111.883975
 31
0.0
  0
LINE
  5
3D1
100
AcDbEntity
  8
LAY-1
  6
CONTINUOUS
 62
     7
100
AcDbLine
 10
182.35
 20
111.883975
 30
0.0
 11
171.35
 21
111.883975
 31
0.0
  0
LINE
  5
3D2
100
AcDbEntity
  8
LAY-1
  6
CONTINUOUS
 62
     7
100
AcDbLine
 10
178.781843
 20
110.383975
 30
0.0
 11
171.35
 21
110.383975
 31
0.0
  0
LINE
  5
3D3
100
AcDbEntity
  8
LAY-1
  6
CONTINUOUS
 62
     7
100
AcDbLine
 10
171.35
 20
108.383975
 30
0.0
 11
178.85
 21
108.383975
 31
0.0
  0
LINE
  5
3D4
100
AcDbEntity
  8
LAY-1
  6
CONTINUOUS
 62
     7
100
AcDbLine
 10
177.5735
 20
116.383975
 30
0.0
 11
177.1
 21
116.383975
 31
0.0
  0
LINE
  5
3D5
100
AcDbEntity
  8
LAY-1
  6
CONTINUOUS
 62
     7
100
AcDbLine
 10
177.1
 20
113.883975
 30
0.0
 11
177.1
 21
118.883975
 31
0.0
  0
LINE
  5
3D6
100
AcDbEntity
  8
LAY-1
  6
CONTINUOUS
 62
     7
100
AcDbLine
 10
183.1
 20
116.383975
 30
0.0
 11
182.6265
 21
116.383975
 31
0.0
  0
LINE
  5
3D7
100
AcDbEntity
  8
LAY-1
  6
CONTINUOUS
 62
     7
100
AcDbLine
 10
183.1
 20
113.883975
 30
0.0
 11
183.1
 21
118.883975
 31
0.0
  0
LINE
  5
3D8
100
AcDbEntity
  8
LAY-1
  6
CONTINUOUS
 62
     1
100
AcDbLine
 10
182.6265
 20
116.383975
 30
0.0
 11
182.6265
 21
118.883975
 31
0.0
  0
LINE
  5
3D9
100
AcDbEntity
  8
LAY-1
  6
CONTINUOUS
 62
     1
100
AcDbLine
 10
182.6265
 20
116.383975
 30
0.0
 11
183.1
 21
115.563849
 31
0.0
  0
LINE
  5
3DA
100
AcDbEntity
  8
LAY-1
  6
CONTINUOUS
 62
     1
100
AcDbLine
 10
177.5735
 20
116.383975
 30
0.0
 11
177.5735
 21
118.883975
 31
0.0
  0
LINE
  5
3DB
100
AcDbEntity
  8
LAY-1
  6
CONTINUOUS
 62
     1
100
AcDbLine
 10
177.5735
 20
116.383975
 30
0.0
 11
177.1
 21
115.563849
 31
0.0
  0
LINE
  5
3DC
100
AcDbEntity
  8
LAY-1
  6
CONTINUOUS
 62
     7
100
AcDbLine
 10
188.85
 20
112.983975
 30
0.0
 11
227.1
 21
112.983975
 31
0.0
  0
LINE
  5
3DD
100
AcDbEntity
  8
LAY-1
  6
CONTINUOUS
 62
     7
100
AcDbLine
 10
171.35
 20
112.983975
 30
0.0
 11
124.1
 21
112.983975
 31
0.0
  0
POLYLINE
  5
3DE
100
AcDbEntity
  8
LAY-1
  6
CONTINUOUS
 62
     1
100
AcDb2dPolyline
 66
     1
 10
0.0
 20
0.0
 30
0.0
 70
   128
  0
VERTEX
  5
3DF
100
AcDbEntity
  8
LAY-1
  6
CONTINUOUS
 62
     1
100
AcDbVertex
100
AcDb2dVertex
 10
188.325575
 20
243.65
 30
0.0
  0
VERTEX
  5
3E0
100
AcDbEntity
  8
LAY-1
  6
CONTINUOUS
 62
     1
100
AcDbVertex
100
AcDb2dVertex
 10
265.859651
 20
264.425193
 30
0.0
  0
SEQEND
  5
3E1
100
AcDbEntity
  8
LAY-1
  6
CONTINUOUS
 62
     1
  0
LINE
  5
3E2
100
AcDbEntity
  8
LAY-1
  6
CONTINUOUS
 62
     1
100
AcDbLine
 10
189.709759
 20
244.27971
 30
0.0
 11
188.325575
 21
243.65
 31
0.0
  0
LINE
  5
3E3
100
AcDbEntity
  8
LAY-1
  6
CONTINUOUS
 62
     1
100
AcDbLine
 10
188.325575
 20
243.65
 30
0.0
 11
189.839169
 21
243.796747
 31
0.0
  0
TEXT
  5
3E4
100
AcDbEntity
  8
LAY-1
  6
CONTINUOUS
 62
     3
100
AcDbText
 10
354.062583
 20
231.877844
 30
0.0
 40
3.2
  1
軟質塩化ビニル
 41
0.66
  7
EXCADSTD
 72
     5
 11
371.662583
 21
231.877844
 31
0.0
100
AcDbText
  0
TEXT
  5
3E5
100
AcDbEntity
  8
LAY-1
  6
CONTINUOUS
 62
     3
100
AcDbText
 10
346.25
 20
231.5
 30
0.0
 40
3.6
  1
１
 41
0.583333
  7
EXCADSTD
 72
     5
 11
348.25
 21
231.5
 31
0.0
100
AcDbText
  0
TEXT
  5
3E6
100
AcDbEntity
  8
LAY-1
  6
CONTINUOUS
 62
     3
100
AcDbText
 10
304.439943
 20
232.353827
 30
0.0
 40
3.2
  1
防水キャップ
 41
1.462399
  7
EXCADSTD
 72
     5
 11
337.866203
 21
232.353827
 31
0.0
100
AcDbText
  0
TEXT
  5
3E7
100
AcDbEntity
  8
LAY-1
  6
CONTINUOUS
 62
     3
100
AcDbText
 10
294.96
 20
231.755
 30
0.0
 40
3.6
  1
３３
 41
0.583333
  7
EXCADSTD
 72
     5
 11
299.543
 21
231.755
 31
0.0
100
AcDbText
  0
TEXT
  5
3E8
100
AcDbEntity
  8
LAY-1
  6
CONTINUOUS
 62
     3
100
AcDbText
 10
353.65
 20
121.6
 30
0.0
 40
3.6
  1
ＳＵＳ３０４
 41
0.583333
  7
EXCADSTD
 72
     5
 11
368.65
 21
121.6
 31
0.0
100
AcDbText
  0
LINE
  5
3E9
100
AcDbEntity
  8
LAY-1
  6
CONTINUOUS
 62
     1
100
AcDbLine
 10
292.387211
 20
240.95
 30
0.0
 11
402.387117
 21
240.95
 31
0.0
  0
TEXT
  5
3EA
100
AcDbEntity
  8
LAY-1
  6
CONTINUOUS
 62
     3
100
AcDbText
 10
346.235777
 20
237.303827
 30
0.0
 40
3.2
  1
1
  7
EXCADSTD
 72
     5
 11
348.315777
 21
237.303827
 31
0.0
100
AcDbText
  0
TEXT
  5
3EB
100
AcDbEntity
  8
LAY-1
  6
CONTINUOUS
 62
     3
100
AcDbText
 10
303.347794
 20
236.61977
 30
0.0
 40
3.2
  1
防水キャップ取り付け方用紙
 41
0.767308
  7
EXCADSTD
 72
     5
 11
341.347795
 21
236.61977
 31
0.0
100
AcDbText
  0
LINE
  5
3EC
100
AcDbEntity
  8
LAY-1
  6
CONTINUOUS
 62
     1
100
AcDbLine
 10
292.387211
 20
236.0
 30
0.0
 11
402.0
 21
236.0
 31
0.0
  0
LINE
  5
3ED
100
AcDbEntity
  8
LAY-1
  6
CONTINUOUS
 62
     1
100
AcDbLine
 10
372.4
 20
73.0
 30
0.0
 11
372.4
 21
240.95
 31
0.0
  0
LINE
  5
3EE
100
AcDbEntity
  8
LAY-1
  6
CONTINUOUS
 62
     1
100
AcDbLine
 10
352.4
 20
76.0
 30
0.0
 11
352.4
 21
240.95
 31
0.0
  0
LINE
  5
3EF
100
AcDbEntity
  8
LAY-1
  6
CONTINUOUS
 62
     1
100
AcDbLine
 10
342.4
 20
71.0
 30
0.0
 11
342.4
 21
240.95
 31
0.0
  0
LINE
  5
3F0
100
AcDbEntity
  8
LAY-1
  6
CONTINUOUS
 62
     1
100
AcDbLine
 10
302.4
 20
76.0
 30
0.0
 11
302.4
 21
240.95
 31
0.0
  0
LINE
  5
3F1
100
AcDbEntity
  8
LAY-1
  6
CONTINUOUS
 62
     1
100
AcDbLine
 10
292.4
 20
76.0
 30
0.0
 11
292.4
 21
240.95
 31
0.0
  0
TEXT
  5
3F2
100
AcDbEntity
  8
LAY-1
  6
CONTINUOUS
 62
     3
100
AcDbText
 10
294.96
 20
236.755
 30
0.0
 40
3.6
  1
３４
 41
0.583333
  7
EXCADSTD
 72
     5
 11
299.543
 21
236.755
 31
0.0
100
AcDbText
  0
ARC
  5
3F3
100
AcDbEntity
  8
LAY-1
  6
CONTINUOUS
 62
     7
100
AcDbCircle
 10
222.117327
 20
114.975074
 30
0.0
 40
1.0
100
AcDbArc
 50
215.538159
 51
270.0
  0
LINE
  5
3F4
100
AcDbEntity
  8
LAY-1
  6
CONTINUOUS
 62
     1
100
AcDbLine
 10
183.558751
 20
217.964278
 30
0.0
 11
184.100001
 21
219.984251
 31
0.0
  0
LINE
  5
3F5
100
AcDbEntity
  8
LAY-1
  6
CONTINUOUS
 62
     1
100
AcDbLine
 10
176.641251
 20
217.964278
 30
0.0
 11
176.100001
 21
219.984251
 31
0.0
  0
LINE
  5
3F6
100
AcDbEntity
  8
LAY-1
  6
EXLTYPE4
 62
     1
100
AcDbLine
 10
173.85
 20
184.897291
 30
0.0
 11
173.85
 21
190.031266
 31
0.0
  0
LINE
  5
3F7
100
AcDbEntity
  8
LAY-1
  6
EXLTYPE4
 62
     1
100
AcDbLine
 10
186.35
 20
184.897291
 30
0.0
 11
186.35
 21
190.031266
 31
0.0
  0
LINE
  5
3F8
100
AcDbEntity
  8
LAY-1
  6
CONTINUOUS
 62
     1
100
AcDbLine
 10
189.975
 20
196.187615
 30
0.0
 11
190.35
 21
195.971109
 31
0.0
  0
LINE
  5
3F9
100
AcDbEntity
  8
LAY-1
  6
CONTINUOUS
 62
     1
100
AcDbLine
 10
176.6
 20
195.964278
 30
0.0
 11
176.6
 21
165.135851
 31
0.0
  0
LINE
  5
3FA
100
AcDbEntity
  8
LAY-1
  6
CONTINUOUS
 62
     1
100
AcDbLine
 10
183.6
 20
165.135851
 30
0.0
 11
183.6
 21
195.964278
 31
0.0
  0
LINE
  5
3FB
100
AcDbEntity
  8
LAY-1
  6
EXLTYPE3
 62
     1
100
AcDbLine
 10
220.1
 20
129.864278
 30
0.0
 11
220.1
 21
125.264278
 31
0.0
  0
LINE
  5
3FC
100
AcDbEntity
  8
LAY-1
  6
EXLTYPE1
 62
     1
100
AcDbLine
 10
130.594187
 20
134.214278
 30
0.0
 11
130.594187
 21
125.714278
 31
0.0
  0
LINE
  5
3FD
100
AcDbEntity
  8
LAY-1
  6
CONTINUOUS
 62
     7
100
AcDbLine
 10
188.615917
 20
196.475074
 30
0.0
 11
171.584083
 21
196.475074
 31
0.0
  0
LINE
  5
3FE
100
AcDbEntity
  8
LAY-1
  6
CONTINUOUS
 62
     7
100
AcDbLine
 10
180.100001
 20
221.475074
 30
0.0
 11
187.025001
 21
221.475074
 31
0.0
  0
LINE
  5
3FF
100
AcDbEntity
  8
LAY-1
  6
CONTINUOUS
 62
     7
100
AcDbLine
 10
186.100001
 20
226.475074
 30
0.0
 11
187.025001
 21
225.941025
 31
0.0
  0
LINE
  5
400
100
AcDbEntity
  8
LAY-1
  6
CONTINUOUS
 62
     7
100
AcDbLine
 10
187.025001
 20
221.475074
 30
0.0
 11
187.025001
 21
225.941025
 31
0.0
  0
LINE
  5
401
100
AcDbEntity
  8
LAY-1
  6
CONTINUOUS
 62
     7
100
AcDbLine
 10
180.100001
 20
226.475074
 30
0.0
 11
186.100001
 21
226.475074
 31
0.0
  0
LINE
  5
402
100
AcDbEntity
  8
LAY-1
  6
CONTINUOUS
 62
     7
100
AcDbLine
 10
183.564102
 20
225.941025
 30
0.0
 11
183.564102
 21
221.475074
 31
0.0
  0
ARC
  5
403
100
AcDbEntity
  8
LAY-1
  6
CONTINUOUS
 62
     7
100
AcDbCircle
 10
185.294552
 20
223.40451
 30
0.0
 40
3.070564
100
AcDbArc
 50
55.697591
 51
124.302409
  0
LINE
  5
404
100
AcDbEntity
  8
LAY-1
  6
CONTINUOUS
 62
     7
100
AcDbLine
 10
184.100001
 20
218.475074
 30
0.0
 11
180.100001
 21
218.475074
 31
0.0
  0
LINE
  5
405
100
AcDbEntity
  8
LAY-1
  6
CONTINUOUS
 62
     7
100
AcDbLine
 10
180.100001
 20
221.475074
 30
0.0
 11
173.175001
 21
221.475074
 31
0.0
  0
LINE
  5
406
100
AcDbEntity
  8
LAY-1
  6
CONTINUOUS
 62
     7
100
AcDbLine
 10
174.100001
 20
226.475074
 30
0.0
 11
173.175001
 21
225.941025
 31
0.0
  0
LINE
  5
407
100
AcDbEntity
  8
LAY-1
  6
CONTINUOUS
 62
     7
100
AcDbLine
 10
173.175001
 20
221.475074
 30
0.0
 11
173.175001
 21
225.941025
 31
0.0
  0
LINE
  5
408
100
AcDbEntity
  8
LAY-1
  6
CONTINUOUS
 62
     7
100
AcDbLine
 10
180.100001
 20
226.475074
 30
0.0
 11
174.100001
 21
226.475074
 31
0.0
  0
LINE
  5
409
100
AcDbEntity
  8
LAY-1
  6
CONTINUOUS
 62
     7
100
AcDbLine
 10
176.635899
 20
225.941025
 30
0.0
 11
176.635899
 21
221.475074
 31
0.0
  0
ARC
  5
40A
100
AcDbEntity
  8
LAY-1
  6
CONTINUOUS
 62
     7
100
AcDbCircle
 10
174.90545
 20
223.40451
 30
0.0
 40
3.070564
100
AcDbArc
 50
55.697591
 51
124.302409
  0
LINE
  5
40B
100
AcDbEntity
  8
LAY-1
  6
CONTINUOUS
 62
     7
100
AcDbLine
 10
176.100001
 20
218.475074
 30
0.0
 11
180.100001
 21
218.475074
 31
0.0
  0
ARC
  5
40C
100
AcDbEntity
  8
LAY-1
  6
CONTINUOUS
 62
     7
100
AcDbCircle
 10
180.100001
 20
214.973125
 30
0.0
 40
11.501949
100
AcDbArc
 50
72.471798
 51
107.528202
  0
LINE
  5
40D
100
AcDbEntity
  8
LAY-1
  6
CONTINUOUS
 62
     7
100
AcDbLine
 10
194.084004
 20
191.359402
 30
0.0
 11
194.084004
 21
191.354849
 31
0.0
  0
ARC
  5
40E
100
AcDbEntity
  8
LAY-1
  6
CONTINUOUS
 62
     7
100
AcDbCircle
 10
193.086768
 20
191.162061
 30
0.0
 40
1.0
100
AcDbArc
 50
355.73917
 51
80.0
  0
ARC
  5
40F
100
AcDbEntity
  8
LAY-1
  6
CONTINUOUS
 62
     7
100
AcDbCircle
 10
191.35
 20
192.585269
 30
0.0
 40
1.0
100
AcDbArc
 50
180.0
 51
260.0
  0
LINE
  5
410
100
AcDbEntity
  8
LAY-1
  6
CONTINUOUS
 62
     7
100
AcDbLine
 10
193.260416
 20
192.146868
 30
0.0
 11
192.687786
 21
192.241004
 31
0.0
  0
LINE
  5
411
100
AcDbEntity
  8
LAY-1
  6
CONTINUOUS
 62
     7
100
AcDbLine
 10
191.176352
 20
191.600461
 30
0.0
 11
194.084004
 21
191.087764
 31
0.0
  0
ARC
  5
412
100
AcDbEntity
  8
LAY-1
  6
CONTINUOUS
 62
     7
100
AcDbCircle
 10
192.85
 20
193.22776
 30
0.0
 40
1.0
100
AcDbArc
 50
180.0
 51
260.664557
  0
LINE
  5
413
100
AcDbEntity
  8
LAY-1
  6
CONTINUOUS
 62
     7
100
AcDbLine
 10
191.85
 20
193.22776
 30
0.0
 11
191.85
 21
195.904554
 31
0.0
  0
LINE
  5
414
100
AcDbEntity
  8
LAY-1
  6
CONTINUOUS
 62
     7
100
AcDbLine
 10
190.35
 20
196.048892
 30
0.0
 11
190.35
 21
192.585269
 31
0.0
  0
ARC
  5
415
100
AcDbEntity
  8
LAY-1
  6
CONTINUOUS
 62
     7
100
AcDbCircle
 10
189.6
 20
196.048892
 30
0.0
 40
0.75
100
AcDbArc
 50
0.0
 51
60.0
  0
ARC
  5
416
100
AcDbEntity
  8
LAY-1
  6
CONTINUOUS
 62
     7
100
AcDbCircle
 10
189.1
 20
198.069618
 30
0.0
 40
0.75
100
AcDbArc
 50
180.0
 51
240.0
  0
LINE
  5
417
100
AcDbEntity
  8
LAY-1
  6
CONTINUOUS
 62
     7
100
AcDbLine
 10
189.975
 20
196.698411
 30
0.0
 11
188.725
 21
197.420099
 31
0.0
  0
ARC
  5
418
100
AcDbEntity
  8
LAY-1
  6
CONTINUOUS
 62
     7
100
AcDbCircle
 10
189.35
 20
195.904554
 30
0.0
 40
2.5
100
AcDbArc
 50
0.0
 51
60.0
  0
ARC
  5
419
100
AcDbEntity
  8
LAY-1
  6
CONTINUOUS
 62
     7
100
AcDbCircle
 10
191.35
 20
199.368656
 30
0.0
 40
1.5
100
AcDbArc
 50
180.0
 51
240.0
  0
LINE
  5
41A
100
AcDbEntity
  8
LAY-1
  6
CONTINUOUS
 62
     7
100
AcDbLine
 10
188.35
 20
203.713955
 30
0.0
 11
188.35
 21
198.069618
 31
0.0
  0
LINE
  5
41B
100
AcDbEntity
  8
LAY-1
  6
CONTINUOUS
 62
     7
100
AcDbLine
 10
189.85
 20
199.368656
 30
0.0
 11
189.85
 21
203.713955
 31
0.0
  0
ARC
  5
41C
100
AcDbEntity
  8
LAY-1
  6
CONTINUOUS
 62
     7
100
AcDbCircle
 10
187.35
 20
203.713955
 30
0.0
 40
1.0
100
AcDbArc
 50
0.0
 51
30.0
  0
ARC
  5
41D
100
AcDbEntity
  8
LAY-1
  6
CONTINUOUS
 62
     7
100
AcDbCircle
 10
172.85
 20
203.713955
 30
0.0
 40
1.0
100
AcDbArc
 50
150.0
 51
180.0
  0
LINE
  5
41E
100
AcDbEntity
  8
LAY-1
  6
CONTINUOUS
 62
     7
100
AcDbLine
 10
186.95955
 20
206.390235
 30
0.0
 11
188.216025
 21
204.213955
 31
0.0
  0
ARC
  5
41F
100
AcDbEntity
  8
LAY-1
  6
CONTINUOUS
 62
     7
100
AcDbCircle
 10
187.825575
 20
206.890235
 30
0.0
 40
1.0
100
AcDbArc
 50
180.0
 51
210.0
  0
ARC
  5
420
100
AcDbEntity
  8
LAY-1
  6
CONTINUOUS
 62
     7
100
AcDbCircle
 10
172.374425
 20
206.890235
 30
0.0
 40
1.0
100
AcDbArc
 50
330.0
 51
0.0
  0
LINE
  5
421
100
AcDbEntity
  8
LAY-1
  6
CONTINUOUS
 62
     7
100
AcDbLine
 10
173.24045
 20
206.390235
 30
0.0
 11
171.983974
 21
204.213955
 31
0.0
  0
ARC
  5
422
100
AcDbEntity
  8
LAY-1
  6
CONTINUOUS
 62
     7
100
AcDbCircle
 10
187.35
 20
203.713955
 30
0.0
 40
2.5
100
AcDbArc
 50
0.0
 51
30.0
  0
LINE
  5
423
100
AcDbEntity
  8
LAY-1
  6
CONTINUOUS
 62
     7
100
AcDbLine
 10
189.515063
 20
204.963955
 30
0.0
 11
188.526537
 21
206.676133
 31
0.0
  0
ARC
  5
424
100
AcDbEntity
  8
LAY-1
  6
CONTINUOUS
 62
     7
100
AcDbCircle
 10
189.825575
 20
207.426133
 30
0.0
 40
1.5
100
AcDbArc
 50
180.0
 51
210.0
  0
ARC
  5
425
100
AcDbEntity
  8
LAY-1
  6
CONTINUOUS
 62
     7
100
AcDbCircle
 10
170.374425
 20
207.426133
 30
0.0
 40
1.5
100
AcDbArc
 50
330.0
 51
0.0
  0
LINE
  5
426
100
AcDbEntity
  8
LAY-1
  6
CONTINUOUS
 62
     7
100
AcDbLine
 10
170.684936
 20
204.963955
 30
0.0
 11
171.673463
 21
206.676133
 31
0.0
  0
ARC
  5
427
100
AcDbEntity
  8
LAY-1
  6
CONTINUOUS
 62
     7
100
AcDbCircle
 10
172.85
 20
203.713955
 30
0.0
 40
2.5
100
AcDbArc
 50
150.0
 51
180.0
  0
LINE
  5
428
100
AcDbEntity
  8
LAY-1
  6
CONTINUOUS
 62
     7
100
AcDbLine
 10
171.85
 20
203.713955
 30
0.0
 11
171.85
 21
198.069618
 31
0.0
  0
LINE
  5
429
100
AcDbEntity
  8
LAY-1
  6
CONTINUOUS
 62
     7
100
AcDbLine
 10
170.35
 20
199.368656
 30
0.0
 11
170.35
 21
203.713955
 31
0.0
  0
ARC
  5
42A
100
AcDbEntity
  8
LAY-1
  6
CONTINUOUS
 62
     7
100
AcDbCircle
 10
170.6
 20
196.048892
 30
0.0
 40
0.75
100
AcDbArc
 50
120.0
 51
180.0
  0
LINE
  5
42B
100
AcDbEntity
  8
LAY-1
  6
CONTINUOUS
 62
     7
100
AcDbLine
 10
170.225
 20
196.698411
 30
0.0
 11
171.475
 21
197.420099
 31
0.0
  0
ARC
  5
42C
100
AcDbEntity
  8
LAY-1
  6
CONTINUOUS
 62
     7
100
AcDbCircle
 10
171.1
 20
198.069618
 30
0.0
 40
0.75
100
AcDbArc
 50
300.0
 51
0.0
  0
ARC
  5
42D
100
AcDbEntity
  8
LAY-1
  6
CONTINUOUS
 62
     7
100
AcDbCircle
 10
168.85
 20
199.368656
 30
0.0
 40
1.5
100
AcDbArc
 50
300.0
 51
0.0
  0
ARC
  5
42E
100
AcDbEntity
  8
LAY-1
  6
CONTINUOUS
 62
     7
100
AcDbCircle
 10
170.85
 20
195.904554
 30
0.0
 40
2.5
100
AcDbArc
 50
120.0
 51
180.0
  0
LINE
  5
42F
100
AcDbEntity
  8
LAY-1
  6
CONTINUOUS
 62
     7
100
AcDbLine
 10
168.35
 20
193.22776
 30
0.0
 11
168.35
 21
195.904554
 31
0.0
  0
LINE
  5
430
100
AcDbEntity
  8
LAY-1
  6
CONTINUOUS
 62
     7
100
AcDbLine
 10
169.85
 20
196.048892
 30
0.0
 11
169.85
 21
192.585269
 31
0.0
  0
LINE
  5
431
100
AcDbEntity
  8
LAY-1
  6
CONTINUOUS
 62
     7
100
AcDbLine
 10
166.115996
 20
191.359402
 30
0.0
 11
166.115996
 21
191.354849
 31
0.0
  0
ARC
  5
432
100
AcDbEntity
  8
LAY-1
  6
CONTINUOUS
 62
     7
100
AcDbCircle
 10
168.85
 20
192.585269
 30
0.0
 40
1.0
100
AcDbArc
 50
280.0
 51
0.0
  0
LINE
  5
433
100
AcDbEntity
  8
LAY-1
  6
CONTINUOUS
 62
     7
100
AcDbLine
 10
169.023648
 20
191.600461
 30
0.0
 11
166.115996
 21
191.087764
 31
0.0
  0
LINE
  5
434
100
AcDbEntity
  8
LAY-1
  6
CONTINUOUS
 62
     7
100
AcDbLine
 10
166.939584
 20
192.146868
 30
0.0
 11
167.512214
 21
192.241004
 31
0.0
  0
ARC
  5
435
100
AcDbEntity
  8
LAY-1
  6
CONTINUOUS
 62
     7
100
AcDbCircle
 10
167.35
 20
193.22776
 30
0.0
 40
1.0
100
AcDbArc
 50
279.335443
 51
0.0
  0
ARC
  5
436
100
AcDbEntity
  8
LAY-1
  6
CONTINUOUS
 62
     7
100
AcDbCircle
 10
167.113232
 20
191.162061
 30
0.0
 40
1.0
100
AcDbArc
 50
100.0
 51
184.26083
  0
LINE
  5
437
100
AcDbEntity
  8
LAY-1
  6
CONTINUOUS
 62
     7
100
AcDbLine
 10
188.325575
 20
207.426133
 30
0.0
 11
188.325575
 21
244.531667
 31
0.0
  0
LINE
  5
438
100
AcDbEntity
  8
LAY-1
  6
CONTINUOUS
 62
     7
100
AcDbLine
 10
186.45
 20
245.087764
 30
0.0
 11
180.1
 21
245.087764
 31
0.0
  0
ARC
  5
439
100
AcDbEntity
  8
LAY-1
  6
CONTINUOUS
 62
     7
100
AcDbCircle
 10
180.1
 20
237.587764
 30
0.0
 40
10.0
100
AcDbArc
 50
50.492811
 51
90.0
  0
ARC
  5
43A
100
AcDbEntity
  8
LAY-1
  6
CONTINUOUS
 62
     7
100
AcDbCircle
 10
185.825575
 20
244.531667
 30
0.0
 40
2.5
100
AcDbArc
 50
0.0
 51
50.492811
  0
ARC
  5
43B
100
AcDbEntity
  8
LAY-1
  6
CONTINUOUS
 62
     7
100
AcDbCircle
 10
185.825575
 20
244.531667
 30
0.0
 40
1.0
100
AcDbArc
 50
0.0
 51
50.492811
  0
ARC
  5
43C
100
AcDbEntity
  8
LAY-1
  6
CONTINUOUS
 62
     7
100
AcDbCircle
 10
180.1
 20
237.587764
 30
0.0
 40
11.5
100
AcDbArc
 50
50.492811
 51
90.0
  0
ARC
  5
43D
100
AcDbEntity
  8
LAY-1
  6
CONTINUOUS
 62
     7
100
AcDbCircle
 10
180.1
 20
237.587764
 30
0.0
 40
11.5
100
AcDbArc
 50
90.0
 51
129.507189
  0
ARC
  5
43E
100
AcDbEntity
  8
LAY-1
  6
CONTINUOUS
 62
     7
100
AcDbCircle
 10
180.1
 20
237.587764
 30
0.0
 40
10.0
100
AcDbArc
 50
90.0
 51
129.507189
  0
LINE
  5
43F
100
AcDbEntity
  8
LAY-1
  6
CONTINUOUS
 62
     7
100
AcDbLine
 10
173.543307
 20
245.087764
 30
0.0
 11
180.1
 21
245.087764
 31
0.0
  0
ARC
  5
440
100
AcDbEntity
  8
LAY-1
  6
CONTINUOUS
 62
     7
100
AcDbCircle
 10
174.374425
 20
244.531667
 30
0.0
 40
1.0
100
AcDbArc
 50
129.507189
 51
180.0
  0
ARC
  5
441
100
AcDbEntity
  8
LAY-1
  6
CONTINUOUS
 62
     7
100
AcDbCircle
 10
174.374425
 20
244.531667
 30
0.0
 40
2.5
100
AcDbArc
 50
129.507189
 51
180.0
  0
LINE
  5
442
100
AcDbEntity
  8
LAY-1
  6
CONTINUOUS
 62
     7
100
AcDbLine
 10
171.874425
 20
207.426133
 30
0.0
 11
171.874425
 21
244.531667
 31
0.0
  0
LINE
  5
443
100
AcDbEntity
  8
LAY-1
  6
CONTINUOUS
 62
     7
100
AcDbLine
 10
186.825575
 20
244.531667
 30
0.0
 11
186.825575
 21
226.171381
 31
0.0
  0
LINE
  5
444
100
AcDbEntity
  8
LAY-1
  6
CONTINUOUS
 62
     7
100
AcDbLine
 10
173.374425
 20
244.531667
 30
0.0
 11
173.374425
 21
226.066149
 31
0.0
  0
LINE
  5
445
100
AcDbEntity
  8
LAY-1
  6
CONTINUOUS
 62
     7
100
AcDbLine
 10
173.374425
 20
221.475074
 30
0.0
 11
173.374425
 21
206.890235
 31
0.0
  0
LINE
  5
446
100
AcDbEntity
  8
LAY-1
  6
CONTINUOUS
 62
     7
100
AcDbLine
 10
186.825575
 20
221.475074
 30
0.0
 11
186.825575
 21
206.890235
 31
0.0
  0
LINE
  5
447
100
AcDbEntity
  8
LAY-1
  6
CONTINUOUS
 62
     7
100
AcDbLine
 10
176.1
 20
196.475074
 30
0.0
 11
176.1
 21
166.146647
 31
0.0
  0
LINE
  5
448
100
AcDbEntity
  8
LAY-1
  6
CONTINUOUS
 62
     7
100
AcDbLine
 10
184.1
 20
166.146647
 30
0.0
 11
184.1
 21
196.475074
 31
0.0
  0
LINE
  5
449
100
AcDbEntity
  8
LAY-1
  6
CONTINUOUS
 62
     7
100
AcDbLine
 10
181.514214
 20
163.56086
 30
0.0
 11
184.1
 21
166.146647
 31
0.0
  0
ARC
  5
44A
100
AcDbEntity
  8
LAY-1
  6
CONTINUOUS
 62
     7
100
AcDbCircle
 10
180.1
 20
164.975074
 30
0.0
 40
2.0
100
AcDbArc
 50
225.0
 51
315.0
  0
LINE
  5
44B
100
AcDbEntity
  8
LAY-1
  6
CONTINUOUS
 62
     7
100
AcDbLine
 10
176.1
 20
166.146647
 30
0.0
 11
178.685786
 21
163.56086
 31
0.0
  0
LINE
  5
44C
100
AcDbEntity
  8
LAY-1
  6
CONTINUOUS
 62
     7
100
AcDbLine
 10
176.1
 20
166.146647
 30
0.0
 11
184.1
 21
166.146647
 31
0.0
  0
LINE
  5
44D
100
AcDbEntity
  8
LAY-1
  6
CONTINUOUS
 62
     7
100
AcDbLine
 10
163.35
 20
159.787574
 30
0.0
 11
163.35
 21
159.975074
 31
0.0
  0
LINE
  5
44E
100
AcDbEntity
  8
LAY-1
  6
CONTINUOUS
 62
     7
100
AcDbLine
 10
168.85
 20
158.975074
 30
0.0
 11
168.85
 21
160.475074
 31
0.0
  0
ARC
  5
44F
100
AcDbEntity
  8
LAY-1
  6
CONTINUOUS
 62
     7
100
AcDbCircle
 10
167.85
 20
160.475074
 30
0.0
 40
1.0
100
AcDbArc
 50
0.0
 51
90.0
  0
LINE
  5
450
100
AcDbEntity
  8
LAY-1
  6
CONTINUOUS
 62
     7
100
AcDbLine
 10
164.35
 20
161.475074
 30
0.0
 11
167.85
 21
161.475074
 31
0.0
  0
LINE
  5
451
100
AcDbEntity
  8
LAY-1
  6
CONTINUOUS
 62
     7
100
AcDbLine
 10
163.35
 20
158.975074
 30
0.0
 11
163.35
 21
160.475074
 31
0.0
  0
ARC
  5
452
100
AcDbEntity
  8
LAY-1
  6
CONTINUOUS
 62
     7
100
AcDbCircle
 10
164.35
 20
160.475074
 30
0.0
 40
1.0
100
AcDbArc
 50
90.0
 51
180.0
  0
LINE
  5
453
100
AcDbEntity
  8
LAY-1
  6
CONTINUOUS
 62
     7
100
AcDbLine
 10
196.85
 20
159.787574
 30
0.0
 11
196.85
 21
159.975074
 31
0.0
  0
LINE
  5
454
100
AcDbEntity
  8
LAY-1
  6
CONTINUOUS
 62
     7
100
AcDbLine
 10
191.35
 20
158.975074
 30
0.0
 11
191.35
 21
160.475074
 31
0.0
  0
ARC
  5
455
100
AcDbEntity
  8
LAY-1
  6
CONTINUOUS
 62
     7
100
AcDbCircle
 10
192.35
 20
160.475074
 30
0.0
 40
1.0
100
AcDbArc
 50
90.0
 51
180.0
  0
LINE
  5
456
100
AcDbEntity
  8
LAY-1
  6
CONTINUOUS
 62
     7
100
AcDbLine
 10
195.85
 20
161.475074
 30
0.0
 11
192.35
 21
161.475074
 31
0.0
  0
LINE
  5
457
100
AcDbEntity
  8
LAY-1
  6
CONTINUOUS
 62
     7
100
AcDbLine
 10
196.85
 20
158.975074
 30
0.0
 11
196.85
 21
160.475074
 31
0.0
  0
ARC
  5
458
100
AcDbEntity
  8
LAY-1
  6
CONTINUOUS
 62
     7
100
AcDbCircle
 10
195.85
 20
160.475074
 30
0.0
 40
1.0
100
AcDbArc
 50
0.0
 51
90.0
  0
LINE
  5
459
100
AcDbEntity
  8
LAY-1
  6
CONTINUOUS
 62
     7
100
AcDbLine
 10
155.6
 20
165.725074
 30
0.0
 11
155.1
 21
165.225074
 31
0.0
  0
LINE
  5
45A
100
AcDbEntity
  8
LAY-1
  6
CONTINUOUS
 62
     7
100
AcDbLine
 10
204.6
 20
165.725074
 30
0.0
 11
205.1
 21
165.225074
 31
0.0
  0
ARC
  5
45B
100
AcDbEntity
  8
LAY-1
  6
CONTINUOUS
 62
     7
100
AcDbCircle
 10
199.848426
 20
161.507504
 30
0.0
 40
0.998953
100
AcDbArc
 50
104.399822
 51
181.860382
  0
LINE
  5
45C
100
AcDbEntity
  8
LAY-1
  6
CONTINUOUS
 62
     7
100
AcDbLine
 10
204.6
 20
162.475074
 30
0.0
 11
199.6
 21
162.475074
 31
0.0
  0
LINE
  5
45D
100
AcDbEntity
  8
LAY-1
  6
CONTINUOUS
 62
     7
100
AcDbLine
 10
204.6
 20
162.475074
 30
0.0
 11
205.1
 21
162.975074
 31
0.0
  0
LINE
  5
45E
100
AcDbEntity
  8
LAY-1
  6
CONTINUOUS
 62
     7
100
AcDbLine
 10
205.1
 20
162.975074
 30
0.0
 11
205.1
 21
165.225074
 31
0.0
  0
ARC
  5
45F
100
AcDbEntity
  8
LAY-1
  6
CONTINUOUS
 62
     7
100
AcDbCircle
 10
160.351573
 20
161.507504
 30
0.0
 40
0.998953
100
AcDbArc
 50
358.139618
 51
75.600178
  0
LINE
  5
460
100
AcDbEntity
  8
LAY-1
  6
CONTINUOUS
 62
     7
100
AcDbLine
 10
155.6
 20
162.475074
 30
0.0
 11
160.6
 21
162.475074
 31
0.0
  0
LINE
  5
461
100
AcDbEntity
  8
LAY-1
  6
CONTINUOUS
 62
     7
100
AcDbLine
 10
155.6
 20
162.475074
 30
0.0
 11
155.1
 21
162.975074
 31
0.0
  0
LINE
  5
462
100
AcDbEntity
  8
LAY-1
  6
CONTINUOUS
 62
     7
100
AcDbLine
 10
155.1
 20
162.975074
 30
0.0
 11
155.1
 21
165.225074
 31
0.0
  0
ARC
  5
463
100
AcDbEntity
  8
LAY-1
  6
CONTINUOUS
 62
     7
100
AcDbCircle
 10
180.1
 20
165.475074
 30
0.0
 40
2.5
100
AcDbArc
 50
270.0
 51
300.0
  0
ARC
  5
464
100
AcDbEntity
  8
LAY-1
  6
CONTINUOUS
 62
     7
100
AcDbCircle
 10
180.1
 20
165.475074
 30
0.0
 40
2.5
100
AcDbArc
 50
240.0
 51
270.0
  0
LINE
  5
465
100
AcDbEntity
  8
LAY-1
  6
CONTINUOUS
 62
     7
100
AcDbLine
 10
198.85
 20
159.225074
 30
0.0
 11
198.85
 21
161.539934
 31
0.0
  0
LINE
  5
466
100
AcDbEntity
  8
LAY-1
  6
CONTINUOUS
 62
     7
100
AcDbLine
 10
198.6
 20
158.975074
 30
0.0
 11
198.85
 21
159.225074
 31
0.0
  0
LINE
  5
467
100
AcDbEntity
  8
LAY-1
  6
CONTINUOUS
 62
     7
100
AcDbLine
 10
161.35
 20
159.225074
 30
0.0
 11
161.35
 21
161.725074
 31
0.0
  0
LINE
  5
468
100
AcDbEntity
  8
LAY-1
  6
CONTINUOUS
 62
     7
100
AcDbLine
 10
161.35
 20
159.225074
 30
0.0
 11
161.6
 21
158.975074
 31
0.0
  0
LINE
  5
469
100
AcDbEntity
  8
LAY-1
  6
CONTINUOUS
 62
     7
100
AcDbLine
 10
181.35
 20
163.31001
 30
0.0
 11
185.533013
 21
165.725074
 31
0.0
  0
LINE
  5
46A
100
AcDbEntity
  8
LAY-1
  6
CONTINUOUS
 62
     7
100
AcDbLine
 10
178.85
 20
163.31001
 30
0.0
 11
174.666987
 21
165.725074
 31
0.0
  0
LINE
  5
46B
100
AcDbEntity
  8
LAY-1
  6
CONTINUOUS
 62
     7
100
AcDbLine
 10
204.6
 20
165.725074
 30
0.0
 11
183.678427
 21
165.725074
 31
0.0
  0
LINE
  5
46C
100
AcDbEntity
  8
LAY-1
  6
CONTINUOUS
 62
     7
100
AcDbLine
 10
155.6
 20
165.725074
 30
0.0
 11
176.521573
 21
165.725074
 31
0.0
  0
LINE
  5
46D
100
AcDbEntity
  8
LAY-1
  6
CONTINUOUS
 62
     7
100
AcDbLine
 10
198.6
 20
158.975074
 30
0.0
 11
196.1
 21
158.975074
 31
0.0
  0
LINE
  5
46E
100
AcDbEntity
  8
LAY-1
  6
CONTINUOUS
 62
     7
100
AcDbLine
 10
192.1
 20
158.975074
 30
0.0
 11
180.1
 21
158.975074
 31
0.0
  0
LINE
  5
46F
100
AcDbEntity
  8
LAY-1
  6
CONTINUOUS
 62
     7
100
AcDbLine
 10
168.1
 20
158.975074
 30
0.0
 11
180.1
 21
158.975074
 31
0.0
  0
LINE
  5
470
100
AcDbEntity
  8
LAY-1
  6
CONTINUOUS
 62
     7
100
AcDbLine
 10
161.6
 20
158.975074
 30
0.0
 11
164.1
 21
158.975074
 31
0.0
  0
LINE
  5
471
100
AcDbEntity
  8
LAY-1
  6
EXLTYPE4
 62
     1
100
AcDbLine
 10
126.85
 20
121.475074
 30
0.0
 11
126.85
 21
113.975074
 31
0.0
  0
LINE
  5
472
100
AcDbEntity
  8
LAY-1
  6
EXLTYPE4
 62
     1
100
AcDbLine
 10
133.35
 20
113.975074
 30
0.0
 11
133.35
 21
121.475074
 31
0.0
  0
ARC
  5
473
100
AcDbEntity
  8
LAY-1
  6
EXLTYPE4
 62
     1
100
AcDbCircle
 10
149.557071
 20
133.725074
 30
0.0
 40
1.5
100
AcDbArc
 50
270.0
 51
357.5304
  0
LINE
  5
474
100
AcDbEntity
  8
LAY-1
  6
EXLTYPE4
 62
     1
100
AcDbLine
 10
144.843801
 20
132.225074
 30
0.0
 11
149.557071
 21
132.225074
 31
0.0
  0
ARC
  5
475
100
AcDbEntity
  8
LAY-1
  6
EXLTYPE4
 62
     1
100
AcDbCircle
 10
144.843801
 20
130.725074
 30
0.0
 40
1.5
100
AcDbArc
 50
90.0
 51
165.154214
  0
ARC
  5
476
100
AcDbEntity
  8
LAY-1
  6
EXLTYPE4
 62
     1
100
AcDbCircle
 10
137.685786
 20
134.975074
 30
0.0
 40
1.0
100
AcDbArc
 50
45.0
 51
90.0
  0
ARC
  5
477
100
AcDbEntity
  8
LAY-1
  6
EXLTYPE4
 62
     1
100
AcDbCircle
 10
139.514213
 20
135.975074
 30
0.0
 40
1.0
100
AcDbArc
 50
225.0
 51
270.0
  0
ARC
  5
478
100
AcDbEntity
  8
LAY-1
  6
EXLTYPE4
 62
     1
100
AcDbCircle
 10
130.1
 20
134.975074
 30
0.0
 40
1.0
100
AcDbArc
 50
90.0
 51
180.0
  0
ARC
  5
479
100
AcDbEntity
  8
LAY-1
  6
EXLTYPE4
 62
     1
100
AcDbCircle
 10
146.92312
 20
136.475074
 30
0.0
 40
1.5
100
AcDbArc
 50
270.0
 51
357.5304
  0
LINE
  5
47A
100
AcDbEntity
  8
LAY-1
  6
EXLTYPE4
 62
     1
100
AcDbLine
 10
130.1
 20
135.975074
 30
0.0
 11
137.685786
 21
135.975074
 31
0.0
  0
LINE
  5
47B
100
AcDbEntity
  8
LAY-1
  6
EXLTYPE4
 62
     1
100
AcDbLine
 10
138.807107
 20
135.267967
 30
0.0
 11
138.392893
 21
135.682181
 31
0.0
  0
LINE
  5
47C
100
AcDbEntity
  8
LAY-1
  6
EXLTYPE4
 62
     1
100
AcDbLine
 10
146.92312
 20
134.975074
 30
0.0
 11
139.514213
 21
134.975074
 31
0.0
  0
LINE
  5
47D
100
AcDbEntity
  8
LAY-1
  6
EXLTYPE4
 62
     1
100
AcDbLine
 10
139.30161
 20
130.975074
 30
0.0
 11
139.30161
 21
129.975074
 31
0.0
  0
LINE
  5
47E
100
AcDbEntity
  8
LAY-1
  6
EXLTYPE4
 62
     1
100
AcDbLine
 10
131.1
 20
134.725074
 30
0.0
 11
131.1
 21
126.225074
 31
0.0
  0
LINE
  5
47F
100
AcDbEntity
  8
LAY-1
  6
EXLTYPE4
 62
     1
100
AcDbLine
 10
131.1
 20
127.175074
 30
0.0
 11
131.599756
 21
127.690691
 31
0.0
  0
LINE
  5
480
100
AcDbEntity
  8
LAY-1
  6
EXLTYPE4
 62
     1
100
AcDbLine
 10
131.599756
 20
127.690691
 30
0.0
 11
131.599756
 21
130.475074
 31
0.0
  0
LINE
  5
481
100
AcDbEntity
  8
LAY-1
  6
EXLTYPE4
 62
     1
100
AcDbLine
 10
131.1
 20
133.775074
 30
0.0
 11
131.599756
 21
133.259457
 31
0.0
  0
LINE
  5
482
100
AcDbEntity
  8
LAY-1
  6
EXLTYPE4
 62
     1
100
AcDbLine
 10
131.599756
 20
133.259457
 30
0.0
 11
131.599756
 21
130.475074
 31
0.0
  0
LINE
  5
483
100
AcDbEntity
  8
LAY-1
  6
EXLTYPE4
 62
     1
100
AcDbLine
 10
131.599756
 20
127.690691
 30
0.0
 11
138.1
 21
127.893824
 31
0.0
  0
LINE
  5
484
100
AcDbEntity
  8
LAY-1
  6
EXLTYPE4
 62
     1
100
AcDbLine
 10
138.1
 20
130.475074
 30
0.0
 11
138.1
 21
127.893824
 31
0.0
  0
LINE
  5
485
100
AcDbEntity
  8
LAY-1
  6
EXLTYPE4
 62
     1
100
AcDbLine
 10
138.1
 20
130.475074
 30
0.0
 11
138.1
 21
133.056324
 31
0.0
  0
LINE
  5
486
100
AcDbEntity
  8
LAY-1
  6
EXLTYPE4
 62
     1
100
AcDbLine
 10
131.599756
 20
133.259457
 30
0.0
 11
138.1
 21
133.056324
 31
0.0
  0
LINE
  5
487
100
AcDbEntity
  8
LAY-1
  6
EXLTYPE4
 62
     1
100
AcDbLine
 10
131.1
 20
126.225074
 30
0.0
 11
129.1
 21
126.225074
 31
0.0
  0
LINE
  5
488
100
AcDbEntity
  8
LAY-1
  6
EXLTYPE4
 62
     1
100
AcDbLine
 10
129.1
 20
134.725074
 30
0.0
 11
131.1
 21
134.725074
 31
0.0
  0
LINE
  5
489
100
AcDbEntity
  8
LAY-1
  6
EXLTYPE4
 62
     1
100
AcDbLine
 10
138.1
 20
133.056324
 30
0.0
 11
139.30161
 21
130.975074
 31
0.0
  0
LINE
  5
48A
100
AcDbEntity
  8
LAY-1
  6
EXLTYPE4
 62
     1
100
AcDbLine
 10
138.1
 20
127.893824
 30
0.0
 11
139.30161
 21
129.975074
 31
0.0
  0
LINE
  5
48B
100
AcDbEntity
  8
LAY-1
  6
EXLTYPE4
 62
     1
100
AcDbLine
 10
139.30161
 20
129.975074
 30
0.0
 11
143.0932
 21
129.975074
 31
0.0
  0
LINE
  5
48C
100
AcDbEntity
  8
LAY-1
  6
EXLTYPE4
 62
     1
100
AcDbLine
 10
139.30161
 20
130.975074
 30
0.0
 11
143.393872
 21
130.975074
 31
0.0
  0
LINE
  5
48D
100
AcDbEntity
  8
LAY-1
  6
EXLTYPE4
 62
     1
100
AcDbLine
 10
129.1
 20
122.475074
 30
0.0
 11
129.1
 21
134.975074
 31
0.0
  0
ARC
  5
48E
100
AcDbEntity
  8
LAY-1
  6
EXLTYPE4
 62
     1
100
AcDbCircle
 10
128.1
 20
122.475074
 30
0.0
 40
1.0
100
AcDbArc
 50
270.0
 51
0.0
  0
LINE
  5
48F
100
AcDbEntity
  8
LAY-1
  6
EXLTYPE4
 62
     1
100
AcDbLine
 10
143.393872
 20
131.109401
 30
0.0
 11
140.944534
 21
121.868934
 31
0.0
  0
LINE
  5
490
100
AcDbEntity
  8
LAY-1
  6
EXLTYPE4
 62
     1
100
AcDbLine
 10
213.725
 20
126.975074
 30
0.0
 11
213.725
 21
127.475074
 31
0.0
  0
ARC
  5
491
100
AcDbEntity
  8
LAY-1
  6
EXLTYPE4
 62
     1
100
AcDbCircle
 10
213.60035
 20
128.975074
 30
0.0
 40
1.5
100
AcDbArc
 50
182.4696
 51
270.0
  0
LINE
  5
492
100
AcDbEntity
  8
LAY-1
  6
EXLTYPE4
 62
     1
100
AcDbLine
 10
226.85
 20
127.475074
 30
0.0
 11
213.60035
 21
127.475074
 31
0.0
  0
LINE
  5
493
100
AcDbEntity
  8
LAY-1
  6
EXLTYPE4
 62
     1
100
AcDbLine
 10
213.725
 20
126.975074
 30
0.0
 11
226.475
 21
126.975074
 31
0.0
  0
LINE
  5
494
100
AcDbEntity
  8
LAY-1
  6
EXLTYPE4
 62
     1
100
AcDbLine
 10
226.475
 20
127.475074
 30
0.0
 11
226.475
 21
126.975074
 31
0.0
  0
ARC
  5
495
100
AcDbEntity
  8
LAY-1
  6
EXLTYPE4
 62
     1
100
AcDbCircle
 10
226.85
 20
126.975074
 30
0.0
 40
0.5
100
AcDbArc
 50
0.0
 51
90.0
  0
LINE
  5
496
100
AcDbEntity
  8
LAY-1
  6
EXLTYPE4
 62
     1
100
AcDbLine
 10
227.35
 20
126.975074
 30
0.0
 11
227.35
 21
122.975074
 31
0.0
  0
ARC
  5
497
100
AcDbEntity
  8
LAY-1
  6
EXLTYPE4
 62
     1
100
AcDbCircle
 10
228.85
 20
122.975074
 30
0.0
 40
1.5
100
AcDbArc
 50
180.0
 51
270.0
  0
LINE
  5
498
100
AcDbEntity
  8
LAY-1
  6
EXLTYPE3
 62
     1
100
AcDbLine
 10
152.45
 20
130.475074
 30
0.0
 11
126.6
 21
130.475074
 31
0.0
  0
LINE
  5
499
100
AcDbEntity
  8
LAY-1
  6
CONTINUOUS
 62
     7
100
AcDbLine
 10
124.1
 20
113.975074
 30
0.0
 11
124.1
 21
106.483975
 31
0.0
  0
LINE
  5
49A
100
AcDbEntity
  8
LAY-1
  6
CONTINUOUS
 62
     7
100
AcDbLine
 10
236.1
 20
112.983975
 30
0.0
 11
236.1
 21
120.464278
 31
0.0
  0
ARC
  5
49B
100
AcDbEntity
  8
LAY-1
  6
EXLTYPE4
 62
     1
100
AcDbCircle
 10
158.85
 20
191.723399
 30
0.0
 40
0.25
100
AcDbArc
 50
90.0
 51
180.0
  0
LINE
  5
49C
100
AcDbEntity
  8
LAY-1
  6
EXLTYPE4
 62
     1
100
AcDbLine
 10
158.85
 20
191.973399
 30
0.0
 11
164.85
 21
191.973399
 31
0.0
  0
ARC
  5
49D
100
AcDbEntity
  8
LAY-1
  6
EXLTYPE4
 62
     1
100
AcDbCircle
 10
164.85
 20
191.723399
 30
0.0
 40
0.25
100
AcDbArc
 50
0.0
 51
90.0
  0
LINE
  5
49E
100
AcDbEntity
  8
LAY-1
  6
EXLTYPE4
 62
     1
100
AcDbLine
 10
165.1
 20
191.723399
 30
0.0
 11
165.1
 21
191.251807
 31
0.0
  0
ARC
  5
49F
100
AcDbEntity
  8
LAY-1
  6
EXLTYPE4
 62
     1
100
AcDbCircle
 10
165.35
 20
191.251807
 30
0.0
 40
0.25
100
AcDbArc
 50
180.0
 51
276.0
  0
LINE
  5
4A0
100
AcDbEntity
  8
LAY-1
  6
EXLTYPE4
 62
     1
100
AcDbLine
 10
158.6
 20
191.723399
 30
0.0
 11
158.6
 21
190.516077
 31
0.0
  0
ARC
  5
4A1
100
AcDbEntity
  8
LAY-1
  6
EXLTYPE4
 62
     1
100
AcDbCircle
 10
158.35
 20
190.516077
 30
0.0
 40
0.25
100
AcDbArc
 50
276.0
 51
0.0
  0
ARC
  5
4A2
100
AcDbEntity
  8
LAY-1
  6
EXLTYPE4
 62
     1
100
AcDbCircle
 10
162.8
 20
192.673399
 30
0.0
 40
0.45
100
AcDbArc
 50
0.0
 51
90.0
  0
ARC
  5
4A3
100
AcDbEntity
  8
LAY-1
  6
EXLTYPE4
 62
     1
100
AcDbCircle
 10
160.9
 20
192.673399
 30
0.0
 40
0.45
100
AcDbArc
 50
90.0
 51
180.0
  0
LINE
  5
4A4
100
AcDbEntity
  8
LAY-1
  6
EXLTYPE4
 62
     1
100
AcDbLine
 10
160.9
 20
193.123399
 30
0.0
 11
162.8
 21
193.123399
 31
0.0
  0
LINE
  5
4A5
100
AcDbEntity
  8
LAY-1
  6
EXLTYPE4
 62
     1
100
AcDbLine
 10
163.25
 20
192.673399
 30
0.0
 11
163.25
 21
192.223399
 31
0.0
  0
LINE
  5
4A6
100
AcDbEntity
  8
LAY-1
  6
EXLTYPE4
 62
     1
100
AcDbLine
 10
160.45
 20
192.673399
 30
0.0
 11
160.45
 21
192.223399
 31
0.0
  0
LINE
  5
4A7
100
AcDbEntity
  8
LAY-1
  6
EXLTYPE4
 62
     1
100
AcDbLine
 10
159.35
 20
191.973399
 30
0.0
 11
159.35
 21
192.223399
 31
0.0
  0
LINE
  5
4A8
100
AcDbEntity
  8
LAY-1
  6
EXLTYPE4
 62
     1
100
AcDbLine
 10
159.35
 20
192.223399
 30
0.0
 11
164.35
 21
192.223399
 31
0.0
  0
LINE
  5
4A9
100
AcDbEntity
  8
LAY-1
  6
EXLTYPE4
 62
     1
100
AcDbLine
 10
164.35
 20
192.223399
 30
0.0
 11
164.35
 21
191.973399
 31
0.0
  0
LINE
  5
4AA
100
AcDbEntity
  8
LAY-1
  6
EXLTYPE3
 62
     1
100
AcDbLine
 10
161.85
 20
189.223399
 30
0.0
 11
161.85
 21
194.373399
 31
0.0
  0
POLYLINE
  5
4AB
100
AcDbEntity
  8
LAY-1
  6
CONTINUOUS
 62
     1
100
AcDb2dPolyline
 66
     1
 10
0.0
 20
0.0
 30
0.0
 70
   128
  0
VERTEX
  5
4AC
100
AcDbEntity
  8
LAY-1
  6
CONTINUOUS
 62
     1
100
AcDbVertex
100
AcDb2dVertex
 10
161.85
 20
193.123399
 30
0.0
  0
VERTEX
  5
4AD
100
AcDbEntity
  8
LAY-1
  6
CONTINUOUS
 62
     1
100
AcDbVertex
100
AcDb2dVertex
 10
108.911852
 20
221.214886
 30
0.0
  0
SEQEND
  5
4AE
100
AcDbEntity
  8
LAY-1
  6
CONTINUOUS
 62
     1
  0
LINE
  5
4AF
100
AcDbEntity
  8
LAY-1
  6
CONTINUOUS
 62
     1
100
AcDbLine
 10
160.407811
 20
193.605674
 30
0.0
 11
161.85
 21
193.123399
 31
0.0
  0
LINE
  5
4B0
100
AcDbEntity
  8
LAY-1
  6
CONTINUOUS
 62
     1
100
AcDbLine
 10
161.85
 20
193.123399
 30
0.0
 11
160.642181
 21
194.047343
 31
0.0
  0
POLYLINE
  5
4B1
100
AcDbEntity
  8
LAY-1
  6
CONTINUOUS
 62
     1
100
AcDb2dPolyline
 66
     1
 10
0.0
 20
0.0
 30
0.0
 70
   128
  0
VERTEX
  5
4B2
100
AcDbEntity
  8
LAY-1
  6
CONTINUOUS
 62
     1
100
AcDbVertex
100
AcDb2dVertex
 10
159.35
 20
192.223399
 30
0.0
  0
VERTEX
  5
4B3
100
AcDbEntity
  8
LAY-1
  6
CONTINUOUS
 62
     1
100
AcDbVertex
100
AcDb2dVertex
 10
109.0
 20
213.5
 30
0.0
  0
SEQEND
  5
4B4
100
AcDbEntity
  8
LAY-1
  6
CONTINUOUS
 62
     1
  0
LINE
  5
4B5
100
AcDbEntity
  8
LAY-1
  6
CONTINUOUS
 62
     1
100
AcDbLine
 10
157.870988
 20
192.576986
 30
0.0
 11
159.35
 21
192.223399
 31
0.0
  0
LINE
  5
4B6
100
AcDbEntity
  8
LAY-1
  6
CONTINUOUS
 62
     1
100
AcDbLine
 10
159.35
 20
192.223399
 30
0.0
 11
158.065611
 21
193.037552
 31
0.0
  0
LINE
  5
4B7
100
AcDbEntity
  8
LAY-1
  6
CONTINUOUS
 62
     7
100
AcDbLine
 10
183.5585
 20
195.933574
 30
0.0
 11
184.1
 21
196.475074
 31
0.0
  0
LINE
  5
4B8
100
AcDbEntity
  8
LAY-1
  6
CONTINUOUS
 62
     7
100
AcDbLine
 10
176.6415
 20
195.933574
 30
0.0
 11
176.1
 21
196.475074
 31
0.0
  0
LINE
  5
4B9
100
AcDbEntity
  8
LAY-1
  6
CONTINUOUS
 62
     7
100
AcDbLine
 10
172.883121
 20
189.983834
 30
0.0
 11
174.6
 21
190.975074
 31
0.0
  0
LINE
  5
4BA
100
AcDbEntity
  8
LAY-1
  6
CONTINUOUS
 62
     7
100
AcDbLine
 10
172.883121
 20
185.966314
 30
0.0
 11
172.883121
 21
189.983834
 31
0.0
  0
LINE
  5
4BB
100
AcDbEntity
  8
LAY-1
  6
CONTINUOUS
 62
     7
100
AcDbLine
 10
174.6
 20
184.975074
 30
0.0
 11
172.883121
 21
185.966314
 31
0.0
  0
LINE
  5
4BC
100
AcDbEntity
  8
LAY-1
  6
CONTINUOUS
 62
     7
100
AcDbLine
 10
174.6
 20
184.975074
 30
0.0
 11
174.6
 21
181.475074
 31
0.0
  0
LINE
  5
4BD
100
AcDbEntity
  8
LAY-1
  6
CONTINUOUS
 62
     7
100
AcDbLine
 10
174.6
 20
190.975074
 30
0.0
 11
174.6
 21
196.475074
 31
0.0
  0
ARC
  5
4BE
100
AcDbEntity
  8
LAY-1
  6
CONTINUOUS
 62
     7
100
AcDbCircle
 10
170.85
 20
195.475074
 30
0.0
 40
1.0
100
AcDbArc
 50
90.0
 51
180.0
  0
LINE
  5
4BF
100
AcDbEntity
  8
LAY-1
  6
CONTINUOUS
 62
     7
100
AcDbLine
 10
187.316878
 20
189.983834
 30
0.0
 11
185.6
 21
190.975074
 31
0.0
  0
LINE
  5
4C0
100
AcDbEntity
  8
LAY-1
  6
CONTINUOUS
 62
     7
100
AcDbLine
 10
187.316878
 20
185.966314
 30
0.0
 11
187.316878
 21
189.983834
 31
0.0
  0
LINE
  5
4C1
100
AcDbEntity
  8
LAY-1
  6
CONTINUOUS
 62
     7
100
AcDbLine
 10
185.6
 20
184.975074
 30
0.0
 11
187.316878
 21
185.966314
 31
0.0
  0
LINE
  5
4C2
100
AcDbEntity
  8
LAY-1
  6
CONTINUOUS
 62
     7
100
AcDbLine
 10
185.6
 20
184.975074
 30
0.0
 11
185.6
 21
181.475074
 31
0.0
  0
LINE
  5
4C3
100
AcDbEntity
  8
LAY-1
  6
CONTINUOUS
 62
     7
100
AcDbLine
 10
185.6
 20
190.975074
 30
0.0
 11
185.6
 21
196.475074
 31
0.0
  0
ARC
  5
4C4
100
AcDbEntity
  8
LAY-1
  6
CONTINUOUS
 62
     7
100
AcDbCircle
 10
189.35
 20
195.475074
 30
0.0
 40
1.0
100
AcDbArc
 50
0.0
 51
90.0
  0
LINE
  5
4C5
100
AcDbEntity
  8
LAY-1
  6
CONTINUOUS
 62
     7
100
AcDbLine
 10
180.1
 20
196.475074
 30
0.0
 11
170.85
 21
196.475074
 31
0.0
  0
LINE
  5
4C6
100
AcDbEntity
  8
LAY-1
  6
CONTINUOUS
 62
     7
100
AcDbLine
 10
180.1
 20
196.475074
 30
0.0
 11
189.35
 21
196.475074
 31
0.0
  0
LINE
  5
4C7
100
AcDbEntity
  8
LAY-1
  6
CONTINUOUS
 62
     7
100
AcDbLine
 10
190.35
 20
195.475074
 30
0.0
 11
190.35
 21
192.375478
 31
0.0
  0
LINE
  5
4C8
100
AcDbEntity
  8
LAY-1
  6
CONTINUOUS
 62
     7
100
AcDbLine
 10
169.85
 20
195.475074
 30
0.0
 11
169.85
 21
192.375478
 31
0.0
  0
ARC
  5
4C9
100
AcDbEntity
  8
LAY-1
  6
CONTINUOUS
 62
     7
100
AcDbCircle
 10
191.35
 20
192.375478
 30
0.0
 40
1.0
100
AcDbArc
 50
180.0
 51
264.0
  0
LINE
  5
4CA
100
AcDbEntity
  8
LAY-1
  6
CONTINUOUS
 62
     7
100
AcDbLine
 10
191.245471
 20
191.380956
 30
0.0
 11
203.06042
 21
190.139155
 31
0.0
  0
ARC
  5
4CB
100
AcDbEntity
  8
LAY-1
  6
CONTINUOUS
 62
     7
100
AcDbCircle
 10
168.85
 20
192.375478
 30
0.0
 40
1.0
100
AcDbArc
 50
276.0
 51
0.0
  0
LINE
  5
4CC
100
AcDbEntity
  8
LAY-1
  6
CONTINUOUS
 62
     7
100
AcDbLine
 10
188.35
 20
183.975074
 30
0.0
 11
188.35
 21
183.475074
 31
0.0
  0
ARC
  5
4CD
100
AcDbEntity
  8
LAY-1
  6
CONTINUOUS
 62
     7
100
AcDbCircle
 10
191.35
 20
183.975074
 30
0.0
 40
3.0
100
AcDbArc
 50
90.0
 51
180.0
  0
ARC
  5
4CE
100
AcDbEntity
  8
LAY-1
  6
CONTINUOUS
 62
     7
100
AcDbCircle
 10
186.35
 20
183.475074
 30
0.0
 40
2.0
100
AcDbArc
 50
270.0
 51
0.0
  0
LINE
  5
4CF
100
AcDbEntity
  8
LAY-1
  6
CONTINUOUS
 62
     7
100
AcDbLine
 10
191.35
 20
186.975074
 30
0.0
 11
202.4
 21
186.975074
 31
0.0
  0
LINE
  5
4D0
100
AcDbEntity
  8
LAY-1
  6
CONTINUOUS
 62
     7
100
AcDbLine
 10
171.85
 20
183.975074
 30
0.0
 11
171.85
 21
183.475074
 31
0.0
  0
ARC
  5
4D1
100
AcDbEntity
  8
LAY-1
  6
CONTINUOUS
 62
     7
100
AcDbCircle
 10
168.85
 20
183.975074
 30
0.0
 40
3.0
100
AcDbArc
 50
0.0
 51
90.0
  0
LINE
  5
4D2
100
AcDbEntity
  8
LAY-1
  6
CONTINUOUS
 62
     7
100
AcDbLine
 10
171.85
 20
183.975074
 30
0.0
 11
171.85
 21
183.475074
 31
0.0
  0
ARC
  5
4D3
100
AcDbEntity
  8
LAY-1
  6
CONTINUOUS
 62
     7
100
AcDbCircle
 10
173.85
 20
183.475074
 30
0.0
 40
2.0
100
AcDbArc
 50
180.0
 51
270.0
  0
LINE
  5
4D4
100
AcDbEntity
  8
LAY-1
  6
CONTINUOUS
 62
     7
100
AcDbLine
 10
158.376132
 20
190.269122
 30
0.0
 11
157.13958
 21
190.139155
 31
0.0
  0
LINE
  5
4D5
100
AcDbEntity
  8
LAY-1
  6
CONTINUOUS
 62
     7
100
AcDbLine
 10
168.85
 20
186.975074
 30
0.0
 11
158.144105
 21
186.975074
 31
0.0
  0
LINE
  5
4D6
100
AcDbEntity
  8
LAY-1
  6
CONTINUOUS
 62
     7
100
AcDbLine
 10
158.376132
 20
190.269122
 30
0.0
 11
157.140326
 21
190.139233
 31
0.0
  0
ARC
  5
4D7
100
AcDbEntity
  8
LAY-1
  6
CONTINUOUS
 62
     7
100
AcDbCircle
 10
202.055894
 20
181.975074
 30
0.0
 40
5.0
100
AcDbArc
 50
2.4696
 51
90.0
  0
ARC
  5
4D8
100
AcDbEntity
  8
LAY-1
  6
CONTINUOUS
 62
     7
100
AcDbCircle
 10
202.27571
 20
182.680319
 30
0.0
 40
7.5
100
AcDbArc
 50
2.4696
 51
84.0
  0
ARC
  5
4D9
100
AcDbEntity
  8
LAY-1
  6
CONTINUOUS
 62
     7
100
AcDbCircle
 10
157.92429
 20
182.680319
 30
0.0
 40
7.5
100
AcDbArc
 50
96.0
 51
177.5304
  0
ARC
  5
4DA
100
AcDbEntity
  8
LAY-1
  6
CONTINUOUS
 62
     7
100
AcDbCircle
 10
158.144105
 20
181.975074
 30
0.0
 40
5.0
100
AcDbArc
 50
90.0
 51
177.5304
  0
LINE
  5
4DB
100
AcDbEntity
  8
LAY-1
  6
CONTINUOUS
 62
     7
100
AcDbLine
 10
168.954528
 20
191.380956
 30
0.0
 11
158.376132
 21
190.269122
 31
0.0
  0
LINE
  5
4DC
100
AcDbEntity
  8
LAY-1
  6
CONTINUOUS
 62
     7
100
AcDbLine
 10
186.35
 20
181.475074
 30
0.0
 11
183.6
 21
181.475074
 31
0.0
  0
LINE
  5
4DD
100
AcDbEntity
  8
LAY-1
  6
CONTINUOUS
 62
     7
100
AcDbLine
 10
173.85
 20
181.475074
 30
0.0
 11
176.6
 21
181.475074
 31
0.0
  0
LINE
  5
4DE
100
AcDbEntity
  8
LAY-1
  6
CONTINUOUS
 62
     7
100
AcDbLine
 10
150.431256
 20
183.003489
 30
0.0
 11
148.421727
 21
136.41044
 31
0.0
  0
LINE
  5
4DF
100
AcDbEntity
  8
LAY-1
  6
CONTINUOUS
 62
     7
100
AcDbLine
 10
153.148749
 20
182.19052
 30
0.0
 11
150.677366
 21
124.888895
 31
0.0
  0
LINE
  5
4E0
100
AcDbEntity
  8
LAY-1
  6
CONTINUOUS
 62
     7
100
AcDbLine
 10
209.768744
 20
183.003489
 30
0.0
 11
212.093748
 21
129.095806
 31
0.0
  0
LINE
  5
4E1
100
AcDbEntity
  8
LAY-1
  6
CONTINUOUS
 62
     7
100
AcDbLine
 10
207.05125
 20
182.19052
 30
0.0
 11
209.522633
 21
124.888895
 31
0.0
  0
ARC
  5
4E2
100
AcDbEntity
  8
LAY-1
  6
CONTINUOUS
 62
     7
100
AcDbCircle
 10
217.78533
 20
121.475074
 30
0.0
 40
1.5
100
AcDbArc
 50
15.0
 51
90.0
  0
LINE
  5
4E3
100
AcDbEntity
  8
LAY-1
  6
CONTINUOUS
 62
     7
100
AcDbLine
 10
209.605175
 20
121.725074
 30
0.0
 11
209.605175
 21
124.400205
 31
0.0
  0
ARC
  5
4E4
100
AcDbEntity
  8
LAY-1
  6
CONTINUOUS
 62
     7
100
AcDbCircle
 10
209.855175
 20
121.725074
 30
0.0
 40
0.25
100
AcDbArc
 50
180.0
 51
270.0
  0
ARC
  5
4E5
100
AcDbEntity
  8
LAY-1
  6
CONTINUOUS
 62
     7
100
AcDbCircle
 10
211.520776
 20
124.975074
 30
0.0
 40
2.0
100
AcDbArc
 50
182.4696
 51
196.704431
  0
ARC
  5
4E6
100
AcDbEntity
  8
LAY-1
  6
CONTINUOUS
 62
     7
100
AcDbCircle
 10
214.855175
 20
122.725074
 30
0.0
 40
0.25
100
AcDbArc
 50
90.0
 51
180.0
  0
LINE
  5
4E7
100
AcDbEntity
  8
LAY-1
  6
CONTINUOUS
 62
     7
100
AcDbLine
 10
214.605175
 20
121.725074
 30
0.0
 11
214.605175
 21
122.725074
 31
0.0
  0
ARC
  5
4E8
100
AcDbEntity
  8
LAY-1
  6
CONTINUOUS
 62
     7
100
AcDbCircle
 10
214.355175
 20
121.725074
 30
0.0
 40
0.25
100
AcDbArc
 50
270.0
 51
0.0
  0
LINE
  5
4E9
100
AcDbEntity
  8
LAY-1
  6
CONTINUOUS
 62
     7
100
AcDbLine
 10
214.355175
 20
121.475074
 30
0.0
 11
209.855175
 21
121.475074
 31
0.0
  0
ARC
  5
4EA
100
AcDbEntity
  8
LAY-1
  6
CONTINUOUS
 62
     7
100
AcDbCircle
 10
211.520776
 20
124.975074
 30
0.0
 40
2.0
100
AcDbArc
 50
196.704431
 51
270.0
  0
LINE
  5
4EB
100
AcDbEntity
  8
LAY-1
  6
CONTINUOUS
 62
     7
100
AcDbLine
 10
211.520776
 20
122.975074
 30
0.0
 11
217.78533
 21
122.975074
 31
0.0
  0
ARC
  5
4EC
100
AcDbEntity
  8
LAY-1
  6
CONTINUOUS
 62
     7
100
AcDbCircle
 10
217.808064
 20
121.475074
 30
0.0
 40
4.75
100
AcDbArc
 50
14.845786
 51
90.0
  0
LINE
  5
4ED
100
AcDbEntity
  8
LAY-1
  6
CONTINUOUS
 62
     7
100
AcDbLine
 10
215.090962
 20
126.225074
 30
0.0
 11
217.808064
 21
126.225074
 31
0.0
  0
ARC
  5
4EE
100
AcDbEntity
  8
LAY-1
  6
CONTINUOUS
 62
     7
100
AcDbCircle
 10
215.090962
 20
129.225074
 30
0.0
 40
3.0
100
AcDbArc
 50
182.4696
 51
270.0
  0
LINE
  5
4EF
100
AcDbEntity
  8
LAY-1
  6
CONTINUOUS
 62
     7
100
AcDbLine
 10
221.149264
 20
114.716255
 30
0.0
 11
219.234219
 21
121.863302
 31
0.0
  0
ARC
  5
4F0
100
AcDbEntity
  8
LAY-1
  6
CONTINUOUS
 62
     7
100
AcDbCircle
 10
223.491567
 20
122.475074
 30
0.0
 40
1.0
100
AcDbArc
 50
194.845786
 51
270.0
  0
LINE
  5
4F1
100
AcDbEntity
  8
LAY-1
  6
CONTINUOUS
 62
     7
100
AcDbLine
 10
222.399504
 20
122.692111
 30
0.0
 11
222.524948
 21
122.218856
 31
0.0
  0
LINE
  5
4F2
100
AcDbEntity
  8
LAY-1
  6
CONTINUOUS
 62
     7
100
AcDbLine
 10
228.85
 20
121.475074
 30
0.0
 11
223.491567
 21
121.475074
 31
0.0
  0
LINE
  5
4F3
100
AcDbEntity
  8
LAY-1
  6
CONTINUOUS
 62
     7
100
AcDbLine
 10
235.1
 20
121.475074
 30
0.0
 11
228.85
 21
121.475074
 31
0.0
  0
ARC
  5
4F4
100
AcDbEntity
  8
LAY-1
  6
CONTINUOUS
 62
     7
100
AcDbCircle
 10
235.1
 20
120.475074
 30
0.0
 40
1.0
100
AcDbArc
 50
0.0
 51
90.0
  0
ARC
  5
4F5
100
AcDbEntity
  8
LAY-1
  6
CONTINUOUS
 62
     7
100
AcDbCircle
 10
222.11519
 20
114.975074
 30
0.0
 40
1.0
100
AcDbArc
 50
195.0
 51
270.0
  0
LINE
  5
4F6
100
AcDbEntity
  8
LAY-1
  6
CONTINUOUS
 62
     7
100
AcDbLine
 10
236.1
 20
113.975074
 30
0.0
 11
236.1
 21
120.475074
 31
0.0
  0
ARC
  5
4F7
100
AcDbEntity
  8
LAY-1
  6
CONTINUOUS
 62
     7
100
AcDbCircle
 10
125.1
 20
120.475074
 30
0.0
 40
1.0
100
AcDbArc
 50
90.0
 51
180.0
  0
LINE
  5
4F8
100
AcDbEntity
  8
LAY-1
  6
CONTINUOUS
 62
     7
100
AcDbLine
 10
124.1
 20
113.975074
 30
0.0
 11
124.1
 21
120.475074
 31
0.0
  0
LINE
  5
4F9
100
AcDbEntity
  8
LAY-1
  6
CONTINUOUS
 62
     7
100
AcDbLine
 10
125.1
 20
121.475074
 30
0.0
 11
126.1
 21
121.475074
 31
0.0
  0
LINE
  5
4FA
100
AcDbEntity
  8
LAY-1
  6
CONTINUOUS
 62
     7
100
AcDbLine
 10
127.6
 20
117.725074
 30
0.0
 11
127.6
 21
113.975074
 31
0.0
  0
ARC
  5
4FB
100
AcDbEntity
  8
LAY-1
  6
CONTINUOUS
 62
     7
100
AcDbCircle
 10
128.6
 20
117.725074
 30
0.0
 40
1.0
100
AcDbArc
 50
90.0
 51
180.0
  0
LINE
  5
4FC
100
AcDbEntity
  8
LAY-1
  6
CONTINUOUS
 62
     7
100
AcDbLine
 10
130.85
 20
118.725074
 30
0.0
 11
128.6
 21
118.725074
 31
0.0
  0
LINE
  5
4FD
100
AcDbEntity
  8
LAY-1
  6
CONTINUOUS
 62
     7
100
AcDbLine
 10
134.1
 20
117.725074
 30
0.0
 11
134.1
 21
113.975074
 31
0.0
  0
ARC
  5
4FE
100
AcDbEntity
  8
LAY-1
  6
CONTINUOUS
 62
     7
100
AcDbCircle
 10
133.1
 20
117.725074
 30
0.0
 40
1.0
100
AcDbArc
 50
0.0
 51
90.0
  0
LINE
  5
4FF
100
AcDbEntity
  8
LAY-1
  6
CONTINUOUS
 62
     7
100
AcDbLine
 10
130.85
 20
118.725074
 30
0.0
 11
133.1
 21
118.725074
 31
0.0
  0
LINE
  5
500
100
AcDbEntity
  8
LAY-1
  6
CONTINUOUS
 62
     7
100
AcDbLine
 10
126.1
 20
121.475074
 30
0.0
 11
128.1
 21
121.475074
 31
0.0
  0
ARC
  5
501
100
AcDbEntity
  8
LAY-1
  6
CONTINUOUS
 62
     7
100
AcDbCircle
 10
142.41467
 20
121.475074
 30
0.0
 40
1.5
100
AcDbArc
 50
90.0
 51
165.0
  0
LINE
  5
502
100
AcDbEntity
  8
LAY-1
  6
CONTINUOUS
 62
     7
100
AcDbLine
 10
150.594824
 20
121.725074
 30
0.0
 11
150.594824
 21
124.400205
 31
0.0
  0
ARC
  5
503
100
AcDbEntity
  8
LAY-1
  6
CONTINUOUS
 62
     7
100
AcDbCircle
 10
150.344824
 20
121.725074
 30
0.0
 40
0.25
100
AcDbArc
 50
270.0
 51
0.0
  0
ARC
  5
504
100
AcDbEntity
  8
LAY-1
  6
CONTINUOUS
 62
     7
100
AcDbCircle
 10
148.679224
 20
124.975074
 30
0.0
 40
2.0
100
AcDbArc
 50
343.295569
 51
357.5304
  0
ARC
  5
505
100
AcDbEntity
  8
LAY-1
  6
CONTINUOUS
 62
     7
100
AcDbCircle
 10
145.344824
 20
122.725074
 30
0.0
 40
0.25
100
AcDbArc
 50
0.0
 51
90.0
  0
LINE
  5
506
100
AcDbEntity
  8
LAY-1
  6
CONTINUOUS
 62
     7
100
AcDbLine
 10
145.594824
 20
121.725074
 30
0.0
 11
145.594824
 21
122.725074
 31
0.0
  0
ARC
  5
507
100
AcDbEntity
  8
LAY-1
  6
CONTINUOUS
 62
     7
100
AcDbCircle
 10
145.844824
 20
121.725074
 30
0.0
 40
0.25
100
AcDbArc
 50
180.0
 51
270.0
  0
LINE
  5
508
100
AcDbEntity
  8
LAY-1
  6
CONTINUOUS
 62
     7
100
AcDbLine
 10
145.844824
 20
121.475074
 30
0.0
 11
150.344824
 21
121.475074
 31
0.0
  0
ARC
  5
509
100
AcDbEntity
  8
LAY-1
  6
CONTINUOUS
 62
     7
100
AcDbCircle
 10
148.679224
 20
124.975074
 30
0.0
 40
2.0
100
AcDbArc
 50
270.0
 51
343.295569
  0
LINE
  5
50A
100
AcDbEntity
  8
LAY-1
  6
CONTINUOUS
 62
     7
100
AcDbLine
 10
148.679224
 20
122.975074
 30
0.0
 11
142.41467
 21
122.975074
 31
0.0
  0
LINE
  5
50B
100
AcDbEntity
  8
LAY-1
  6
CONTINUOUS
 62
     7
100
AcDbLine
 10
148.421727
 20
136.41044
 30
0.0
 11
148.106251
 21
129.095806
 31
0.0
  0
ARC
  5
50C
100
AcDbEntity
  8
LAY-1
  6
CONTINUOUS
 62
     7
100
AcDbCircle
 10
145.109038
 20
129.225074
 30
0.0
 40
3.0
100
AcDbArc
 50
270.0
 51
357.5304
  0
LINE
  5
50D
100
AcDbEntity
  8
LAY-1
  6
CONTINUOUS
 62
     7
100
AcDbLine
 10
145.109038
 20
126.225074
 30
0.0
 11
142.391936
 21
126.225074
 31
0.0
  0
ARC
  5
50E
100
AcDbEntity
  8
LAY-1
  6
CONTINUOUS
 62
     7
100
AcDbCircle
 10
142.391936
 20
121.475074
 30
0.0
 40
4.75
100
AcDbArc
 50
90.0
 51
165.154214
  0
ARC
  5
50F
100
AcDbEntity
  8
LAY-1
  6
CONTINUOUS
 62
     7
100
AcDbCircle
 10
136.708433
 20
122.475074
 30
0.0
 40
1.0
100
AcDbArc
 50
270.0
 51
345.154214
  0
LINE
  5
510
100
AcDbEntity
  8
LAY-1
  6
CONTINUOUS
 62
     7
100
AcDbLine
 10
137.800496
 20
122.692111
 30
0.0
 11
137.675052
 21
122.218856
 31
0.0
  0
LINE
  5
511
100
AcDbEntity
  8
LAY-1
  6
CONTINUOUS
 62
     7
100
AcDbLine
 10
128.1
 20
121.475074
 30
0.0
 11
136.708433
 21
121.475074
 31
0.0
  0
LINE
  5
512
100
AcDbEntity
  8
LAY-1
  6
CONTINUOUS
 62
     7
100
AcDbLine
 10
140.944534
 20
121.868934
 30
0.0
 11
139.048599
 21
114.716255
 31
0.0
  0
ARC
  5
513
100
AcDbEntity
  8
LAY-1
  6
CONTINUOUS
 62
     7
100
AcDbCircle
 10
138.082669
 20
114.975074
 30
0.0
 40
1.0
100
AcDbArc
 50
270.0
 51
345.154214
  0
ARC
  5
514
100
AcDbEntity
  8
LAY-1
  6
CONTINUOUS
 62
     2
100
AcDbCircle
 10
69.109334
 20
176.809948
 30
0.0
 40
89.25
100
AcDbArc
 50
107.829786
 51
107.927629
  0
ARC
  5
515
100
AcDbEntity
  8
LAY-1
  6
CONTINUOUS
 62
     2
100
AcDbCircle
 10
69.109334
 20
334.53683
 30
0.0
 40
89.25
100
AcDbArc
 50
252.072371
 51
252.170214
  0
LINE
  5
516
100
AcDbEntity
  8
LAY-1
  6
EXLTYPE3
 62
     1
100
AcDbLine
 10
61.341312
 20
274.427053
 30
0.0
 11
57.706284
 21
283.202787
 31
0.0
  0
ARC
  5
517
100
AcDbEntity
  8
LAY-1
  6
EXLTYPE3
 62
     1
100
AcDbCircle
 10
69.109334
 20
255.673389
 30
0.0
 40
25.0
100
AcDbArc
 50
103.065199
 51
122.853703
  0
LINE
  5
518
100
AcDbEntity
  8
LAY-1
  6
EXLTYPE3
 62
     1
100
AcDbLine
 10
50.35567
 20
263.441411
 30
0.0
 11
41.579936
 21
267.076439
 31
0.0
  0
ARC
  5
519
100
AcDbEntity
  8
LAY-1
  6
EXLTYPE3
 62
     1
100
AcDbCircle
 10
69.109334
 20
255.673389
 30
0.0
 40
25.0
100
AcDbArc
 50
148.065199
 51
167.853703
  0
LINE
  5
51A
100
AcDbEntity
  8
LAY-1
  6
EXLTYPE3
 62
     1
100
AcDbLine
 10
76.877356
 20
274.427053
 30
0.0
 11
80.512384
 21
283.202787
 31
0.0
  0
ARC
  5
51B
100
AcDbEntity
  8
LAY-1
  6
EXLTYPE3
 62
     1
100
AcDbCircle
 10
69.109334
 20
255.673389
 30
0.0
 40
25.0
100
AcDbArc
 50
57.146297
 51
76.934801
  0
LINE
  5
51C
100
AcDbEntity
  8
LAY-1
  6
EXLTYPE3
 62
     1
100
AcDbLine
 10
87.862998
 20
263.441411
 30
0.0
 11
96.638731
 21
267.076439
 31
0.0
  0
ARC
  5
51D
100
AcDbEntity
  8
LAY-1
  6
EXLTYPE3
 62
     1
100
AcDbCircle
 10
69.109334
 20
255.673389
 30
0.0
 40
25.0
100
AcDbArc
 50
12.146297
 51
31.934801
  0
LINE
  5
51E
100
AcDbEntity
  8
LAY-1
  6
EXLTYPE3
 62
     1
100
AcDbLine
 10
76.877356
 20
236.919725
 30
0.0
 11
80.512384
 21
228.143992
 31
0.0
  0
ARC
  5
51F
100
AcDbEntity
  8
LAY-1
  6
EXLTYPE3
 62
     1
100
AcDbCircle
 10
69.109334
 20
255.673389
 30
0.0
 40
25.0
100
AcDbArc
 50
283.065199
 51
302.853703
  0
LINE
  5
520
100
AcDbEntity
  8
LAY-1
  6
EXLTYPE3
 62
     1
100
AcDbLine
 10
87.862998
 20
247.905367
 30
0.0
 11
96.638731
 21
244.270339
 31
0.0
  0
ARC
  5
521
100
AcDbEntity
  8
LAY-1
  6
EXLTYPE3
 62
     1
100
AcDbCircle
 10
69.109334
 20
255.673389
 30
0.0
 40
25.0
100
AcDbArc
 50
328.065199
 51
347.853703
  0
LINE
  5
522
100
AcDbEntity
  8
LAY-1
  6
EXLTYPE3
 62
     1
100
AcDbLine
 10
61.341312
 20
236.919725
 30
0.0
 11
57.706284
 21
228.143992
 31
0.0
  0
ARC
  5
523
100
AcDbEntity
  8
LAY-1
  6
EXLTYPE3
 62
     1
100
AcDbCircle
 10
69.109334
 20
255.673389
 30
0.0
 40
25.0
100
AcDbArc
 50
237.146297
 51
256.934801
  0
LINE
  5
524
100
AcDbEntity
  8
LAY-1
  6
EXLTYPE3
 62
     1
100
AcDbLine
 10
50.35567
 20
247.905367
 30
0.0
 11
41.579936
 21
244.270339
 31
0.0
  0
ARC
  5
525
100
AcDbEntity
  8
LAY-1
  6
EXLTYPE3
 62
     1
100
AcDbCircle
 10
69.109334
 20
255.673389
 30
0.0
 40
25.0
100
AcDbArc
 50
192.146297
 51
211.934801
  0
ARC
  5
526
100
AcDbEntity
  8
LAY-1
  6
CONTINUOUS
 62
     2
100
AcDbCircle
 10
69.109334
 20
278.860889
 30
0.0
 40
0.2
100
AcDbArc
 50
181.79781
 51
358.20219
  0
ARC
  5
527
100
AcDbEntity
  8
LAY-1
  6
CONTINUOUS
 62
     2
100
AcDbCircle
 10
69.109334
 20
275.673389
 30
0.0
 40
3.1875
100
AcDbArc
 50
93.595619
 51
86.404381
  0
ARC
  5
528
100
AcDbEntity
  8
LAY-1
  6
CONTINUOUS
 62
     2
100
AcDbCircle
 10
71.846723
 20
272.260571
 30
0.0
 40
0.75
100
AcDbArc
 50
128.732766
 51
260.628921
  0
ARC
  5
529
100
AcDbEntity
  8
LAY-1
  6
CONTINUOUS
 62
     2
100
AcDbCircle
 10
66.371945
 20
272.260571
 30
0.0
 40
0.75
100
AcDbArc
 50
279.371079
 51
51.267234
  0
ARC
  5
52A
100
AcDbEntity
  8
LAY-1
  6
CONTINUOUS
 62
     2
100
AcDbCircle
 10
69.109334
 20
275.673389
 30
0.0
 40
3.625
100
AcDbArc
 50
308.732766
 51
231.267234
  0
ARC
  5
52B
100
AcDbEntity
  8
LAY-1
  6
CONTINUOUS
 62
     2
100
AcDbCircle
 10
69.109334
 20
255.673389
 30
0.0
 40
16.061541
100
AcDbArc
 50
281.836775
 51
80.628921
  0
ARC
  5
52C
100
AcDbEntity
  8
LAY-1
  6
CONTINUOUS
 62
     2
100
AcDbCircle
 10
69.109334
 20
255.673389
 30
0.0
 40
16.061541
100
AcDbArc
 50
99.371079
 51
258.163225
  0
CIRCLE
  5
52D
100
AcDbEntity
  8
LAY-1
  6
CONTINUOUS
 62
     2
100
AcDbCircle
 10
69.359334
 20
255.548389
 30
0.0
 40
14.475068
  0
CIRCLE
  5
52E
100
AcDbEntity
  8
LAY-1
  6
CONTINUOUS
 62
     2
100
AcDbCircle
 10
69.109334
 20
255.673389
 30
0.0
 40
5.125
  0
LINE
  5
52F
100
AcDbEntity
  8
LAY-1
  6
CONTINUOUS
 62
     1
100
AcDbLine
 10
59.859334
 20
255.673389
 30
0.0
 11
59.859334
 21
253.862476
 31
0.0
  0
LINE
  5
530
100
AcDbEntity
  8
LAY-1
  6
CONTINUOUS
 62
     2
100
AcDbLine
 10
62.312025
 20
258.843026
 30
0.0
 11
59.308926
 21
261.45358
 31
0.0
  0
LINE
  5
531
100
AcDbEntity
  8
LAY-1
  6
CONTINUOUS
 62
     2
100
AcDbLine
 10
59.308926
 20
261.45358
 30
0.0
 11
59.803532
 21
262.514266
 31
0.0
  0
LINE
  5
532
100
AcDbEntity
  8
LAY-1
  6
CONTINUOUS
 62
     2
100
AcDbLine
 10
62.312025
 20
258.843026
 30
0.0
 11
62.806631
 21
259.903711
 31
0.0
  0
LINE
  5
533
100
AcDbEntity
  8
LAY-1
  6
CONTINUOUS
 62
     2
100
AcDbLine
 10
59.803532
 20
262.514266
 30
0.0
 11
62.806631
 21
259.903711
 31
0.0
  0
LINE
  5
534
100
AcDbEntity
  8
LAY-1
  6
CONTINUOUS
 62
     2
100
AcDbLine
 10
63.04271
 20
265.466927
 30
0.0
 11
63.373284
 21
264.828095
 31
0.0
  0
LINE
  5
535
100
AcDbEntity
  8
LAY-1
  6
CONTINUOUS
 62
     2
100
AcDbLine
 10
62.754386
 20
264.247681
 30
0.0
 11
63.371882
 21
264.830803
 31
0.0
  0
LINE
  5
536
100
AcDbEntity
  8
LAY-1
  6
CONTINUOUS
 62
     2
100
AcDbLine
 10
61.369575
 20
262.939961
 30
0.0
 11
61.927622
 21
263.466942
 31
0.0
  0
LINE
  5
537
100
AcDbEntity
  8
LAY-1
  6
CONTINUOUS
 62
     2
100
AcDbLine
 10
61.038144
 20
263.58045
 30
0.0
 11
61.369575
 21
262.939961
 31
0.0
  0
LINE
  5
538
100
AcDbEntity
  8
LAY-1
  6
CONTINUOUS
 62
     2
100
AcDbLine
 10
61.053367
 20
263.588328
 30
0.0
 11
63.04271
 21
265.466927
 31
0.0
  0
LINE
  5
539
100
AcDbEntity
  8
LAY-1
  6
CONTINUOUS
 62
     2
100
AcDbLine
 10
62.760066
 20
264.253046
 30
0.0
 11
64.259629
 21
261.355146
 31
0.0
  0
LINE
  5
53A
100
AcDbEntity
  8
LAY-1
  6
CONTINUOUS
 62
     2
100
AcDbLine
 10
63.42919
 20
260.570936
 30
0.0
 11
64.259629
 21
261.355146
 31
0.0
  0
LINE
  5
53B
100
AcDbEntity
  8
LAY-1
  6
CONTINUOUS
 62
     2
100
AcDbLine
 10
61.929976
 20
263.46816
 30
0.0
 11
63.42919
 21
260.570936
 31
0.0
  0
ELLIPSE
  5
53C
100
AcDbEntity
  8
LAY-1
  6
CONTINUOUS
 62
     2
100
AcDbEllipse
 10
65.546998
 20
264.367069
 30
0.0
 11
-0.1166077725437264
 21
1.9861525724153075
 31
0.0
210
0.0
220
0.0
230
1.0
 40
0.66547
 41
0.0
 42
6.2831853071796004
  0
ELLIPSE
  5
53D
100
AcDbEntity
  8
LAY-1
  6
CONTINUOUS
 62
     2
100
AcDbEllipse
 10
65.527856
 20
264.350633
 30
0.0
 11
0.2671960459442091
 21
-1.1944799173819558
 31
0.0
210
0.0
220
0.0
230
1.0
 40
0.1875
 41
0.0
 42
6.2831853071796004
  0
LINE
  5
53E
100
AcDbEntity
  8
LAY-1
  6
CONTINUOUS
 62
     2
100
AcDbLine
 10
69.80913
 20
267.012051
 30
0.0
 11
68.69765
 21
263.191291
 31
0.0
  0
LINE
  5
53F
100
AcDbEntity
  8
LAY-1
  6
CONTINUOUS
 62
     2
100
AcDbLine
 10
68.738138
 20
267.016164
 30
0.0
 11
67.626658
 21
263.195403
 31
0.0
  0
LINE
  5
540
100
AcDbEntity
  8
LAY-1
  6
CONTINUOUS
 62
     2
100
AcDbLine
 10
70.268127
 20
267.010289
 30
0.0
 11
69.317656
 21
265.322586
 31
0.0
  0
LINE
  5
541
100
AcDbEntity
  8
LAY-1
  6
CONTINUOUS
 62
     2
100
AcDbLine
 10
69.309646
 20
263.188941
 30
0.0
 11
69.317656
 21
265.322586
 31
0.0
  0
LINE
  5
542
100
AcDbEntity
  8
LAY-1
  6
CONTINUOUS
 62
     2
100
AcDbLine
 10
71.339119
 20
267.006176
 30
0.0
 11
70.239176
 21
265.053065
 31
0.0
  0
LINE
  5
543
100
AcDbEntity
  8
LAY-1
  6
CONTINUOUS
 62
     2
100
AcDbLine
 10
68.738138
 20
267.016164
 30
0.0
 11
69.80913
 21
267.012051
 31
0.0
  0
LINE
  5
544
100
AcDbEntity
  8
LAY-1
  6
CONTINUOUS
 62
     2
100
AcDbLine
 10
70.239176
 20
265.053065
 30
0.0
 11
70.232165
 21
263.185399
 31
0.0
  0
LINE
  5
545
100
AcDbEntity
  8
LAY-1
  6
CONTINUOUS
 62
     2
100
AcDbLine
 10
70.268127
 20
267.010289
 30
0.0
 11
71.339119
 21
267.006176
 31
0.0
  0
LINE
  5
546
100
AcDbEntity
  8
LAY-1
  6
CONTINUOUS
 62
     2
100
AcDbLine
 10
67.626658
 20
263.195403
 30
0.0
 11
68.69765
 21
263.191291
 31
0.0
  0
LINE
  5
547
100
AcDbEntity
  8
LAY-1
  6
CONTINUOUS
 62
     2
100
AcDbLine
 10
69.309646
 20
263.188941
 30
0.0
 11
70.232165
 21
263.185399
 31
0.0
  0
ELLIPSE
  5
548
100
AcDbEntity
  8
LAY-1
  6
CONTINUOUS
 62
     2
100
AcDbEllipse
 10
72.253192
 20
264.537968
 30
0.0
 11
-0.7146178071239462
 21
-0.9937290323517498
 31
0.0
210
0.0
220
0.0
230
1.0
 40
0.1875
 41
0.0
 42
6.2831853071796004
  0
ELLIPSE
  5
549
100
AcDbEntity
  8
LAY-1
  6
CONTINUOUS
 62
     2
100
AcDbEllipse
 10
72.278196
 20
264.534597
 30
0.0
 11
1.4061035147002998
 21
1.4075767543787514
 31
0.0
210
0.0
220
0.0
230
1.0
 40
0.66547
 41
0.0
 42
6.2831853071796004
  0
LINE
  5
54A
100
AcDbEntity
  8
LAY-1
  6
CONTINUOUS
 62
     2
100
AcDbLine
 10
73.801035
 20
261.391217
 30
0.0
 11
74.481519
 21
260.768324
 31
0.0
  0
LINE
  5
54B
100
AcDbEntity
  8
LAY-1
  6
CONTINUOUS
 62
     2
100
AcDbLine
 10
75.742465
 20
262.14609
 30
0.0
 11
74.481519
 21
260.768324
 31
0.0
  0
LINE
  5
54C
100
AcDbEntity
  8
LAY-1
  6
CONTINUOUS
 62
     2
100
AcDbLine
 10
72.559602
 20
262.527586
 30
0.0
 11
73.349605
 21
261.804442
 31
0.0
  0
LINE
  5
54D
100
AcDbEntity
  8
LAY-1
  6
CONTINUOUS
 62
     2
100
AcDbLine
 10
75.951292
 20
264.60846
 30
0.0
 11
76.741295
 21
263.885316
 31
0.0
  0
LINE
  5
54E
100
AcDbEntity
  8
LAY-1
  6
CONTINUOUS
 62
     2
100
AcDbLine
 10
76.741295
 20
263.885316
 30
0.0
 11
73.349605
 21
261.804442
 31
0.0
  0
LINE
  5
54F
100
AcDbEntity
  8
LAY-1
  6
CONTINUOUS
 62
     2
100
AcDbLine
 10
73.801035
 20
261.391217
 30
0.0
 11
75.241556
 21
262.965194
 31
0.0
  0
LINE
  5
550
100
AcDbEntity
  8
LAY-1
  6
CONTINUOUS
 62
     2
100
AcDbLine
 10
77.079868
 20
263.575397
 30
0.0
 11
75.241556
 21
262.965194
 31
0.0
  0
LINE
  5
551
100
AcDbEntity
  8
LAY-1
  6
CONTINUOUS
 62
     2
100
AcDbLine
 10
77.86987
 20
262.852254
 30
0.0
 11
75.742465
 21
262.14609
 31
0.0
  0
LINE
  5
552
100
AcDbEntity
  8
LAY-1
  6
CONTINUOUS
 62
     2
100
AcDbLine
 10
77.079868
 20
263.575397
 30
0.0
 11
77.86987
 21
262.852254
 31
0.0
  0
LINE
  5
553
100
AcDbEntity
  8
LAY-1
  6
CONTINUOUS
 62
     2
100
AcDbLine
 10
75.951292
 20
264.60846
 30
0.0
 11
72.559602
 21
262.527586
 31
0.0
  0
LINE
  5
554
100
AcDbEntity
  8
LAY-1
  6
CONTINUOUS
 62
     2
100
AcDbLine
 10
74.935283
 20
260.656977
 30
0.0
 11
78.827475
 21
261.484287
 31
0.0
  0
LINE
  5
555
100
AcDbEntity
  8
LAY-1
  6
CONTINUOUS
 62
     2
100
AcDbLine
 10
78.827475
 20
261.484287
 30
0.0
 11
79.376915
 21
260.450941
 31
0.0
  0
LINE
  5
556
100
AcDbEntity
  8
LAY-1
  6
CONTINUOUS
 62
     2
100
AcDbLine
 10
74.935283
 20
260.656977
 30
0.0
 11
75.484723
 21
259.623631
 31
0.0
  0
LINE
  5
557
100
AcDbEntity
  8
LAY-1
  6
CONTINUOUS
 62
     2
100
AcDbLine
 10
79.376915
 20
260.450941
 30
0.0
 11
75.484723
 21
259.623631
 31
0.0
  0
LINE
  5
558
100
AcDbEntity
  8
LAY-1
  6
CONTINUOUS
 62
     1
100
AcDbLine
 10
58.416066
 20
256.870305
 30
0.0
 11
58.662418
 21
257.116657
 31
0.0
  0
LINE
  5
559
100
AcDbEntity
  8
LAY-1
  6
CONTINUOUS
 62
     1
100
AcDbLine
 10
58.209498
 20
256.564271
 30
0.0
 11
58.968452
 21
257.323225
 31
0.0
  0
LINE
  5
55A
100
AcDbEntity
  8
LAY-1
  6
CONTINUOUS
 62
     1
100
AcDbLine
 10
58.12113
 20
256.376438
 30
0.0
 11
58.605428
 21
256.860736
 31
0.0
  0
LINE
  5
55B
100
AcDbEntity
  8
LAY-1
  6
CONTINUOUS
 62
     1
100
AcDbLine
 10
58.893012
 20
257.14832
 30
0.0
 11
58.968452
 21
257.223759
 31
0.0
  0
LINE
  5
55C
100
AcDbEntity
  8
LAY-1
  6
CONTINUOUS
 62
     1
100
AcDbLine
 10
58.066489
 20
256.222331
 30
0.0
 11
58.423815
 21
256.579657
 31
0.0
  0
LINE
  5
55D
100
AcDbEntity
  8
LAY-1
  6
CONTINUOUS
 62
     1
100
AcDbLine
 10
58.030491
 20
256.086868
 30
0.0
 11
58.34047
 21
256.396846
 31
0.0
  0
LINE
  5
55E
100
AcDbEntity
  8
LAY-1
  6
CONTINUOUS
 62
     1
100
AcDbLine
 10
58.006972
 20
255.963883
 30
0.0
 11
58.288087
 21
256.244998
 31
0.0
  0
LINE
  5
55F
100
AcDbEntity
  8
LAY-1
  6
CONTINUOUS
 62
     1
100
AcDbLine
 10
57.992681
 20
255.850126
 30
0.0
 11
58.253138
 21
256.110583
 31
0.0
  0
LINE
  5
560
100
AcDbEntity
  8
LAY-1
  6
CONTINUOUS
 62
     1
100
AcDbLine
 10
57.985649
 20
255.743628
 30
0.0
 11
58.229976
 21
255.987956
 31
0.0
  0
LINE
  5
561
100
AcDbEntity
  8
LAY-1
  6
CONTINUOUS
 62
     1
100
AcDbLine
 10
57.984577
 20
255.643092
 30
0.0
 11
58.215592
 21
255.874106
 31
0.0
  0
LINE
  5
562
100
AcDbEntity
  8
LAY-1
  6
CONTINUOUS
 62
     1
100
AcDbLine
 10
57.988556
 20
255.547605
 30
0.0
 11
58.208152
 21
255.7672
 31
0.0
  0
LINE
  5
563
100
AcDbEntity
  8
LAY-1
  6
CONTINUOUS
 62
     1
100
AcDbLine
 10
57.996919
 20
255.456502
 30
0.0
 11
58.206443
 21
255.666026
 31
0.0
  0
LINE
  5
564
100
AcDbEntity
  8
LAY-1
  6
CONTINUOUS
 62
     1
100
AcDbLine
 10
58.009159
 20
255.369277
 30
0.0
 11
58.209613
 21
255.56973
 31
0.0
  0
LINE
  5
565
100
AcDbEntity
  8
LAY-1
  6
CONTINUOUS
 62
     1
100
AcDbLine
 10
58.024886
 20
255.285537
 30
0.0
 11
58.217035
 21
255.477687
 31
0.0
  0
LINE
  5
566
100
AcDbEntity
  8
LAY-1
  6
CONTINUOUS
 62
     1
100
AcDbLine
 10
58.043786
 20
255.204972
 30
0.0
 11
58.228236
 21
255.389422
 31
0.0
  0
LINE
  5
567
100
AcDbEntity
  8
LAY-1
  6
CONTINUOUS
 62
     1
100
AcDbLine
 10
58.065609
 20
255.12733
 30
0.0
 11
58.242849
 21
255.304569
 31
0.0
  0
LINE
  5
568
100
AcDbEntity
  8
LAY-1
  6
CONTINUOUS
 62
     1
100
AcDbLine
 10
58.090151
 20
255.052406
 30
0.0
 11
58.260581
 21
255.222836
 31
0.0
  0
LINE
  5
569
100
AcDbEntity
  8
LAY-1
  6
CONTINUOUS
 62
     1
100
AcDbLine
 10
58.117242
 20
254.980031
 30
0.0
 11
58.2812
 21
255.14399
 31
0.0
  0
LINE
  5
56A
100
AcDbEntity
  8
LAY-1
  6
CONTINUOUS
 62
     1
100
AcDbLine
 10
58.146743
 20
254.910066
 30
0.0
 11
58.304516
 21
255.06784
 31
0.0
  0
LINE
  5
56B
100
AcDbEntity
  8
LAY-1
  6
CONTINUOUS
 62
     1
100
AcDbLine
 10
58.178537
 20
254.842395
 30
0.0
 11
58.330373
 21
254.994231
 31
0.0
  0
LINE
  5
56C
100
AcDbEntity
  8
LAY-1
  6
CONTINUOUS
 62
     1
100
AcDbLine
 10
58.212527
 20
254.77692
 30
0.0
 11
58.358645
 21
254.923037
 31
0.0
  0
LINE
  5
56D
100
AcDbEntity
  8
LAY-1
  6
CONTINUOUS
 62
     1
100
AcDbLine
 10
58.248633
 20
254.71356
 30
0.0
 11
58.389226
 21
254.854152
 31
0.0
  0
LINE
  5
56E
100
AcDbEntity
  8
LAY-1
  6
CONTINUOUS
 62
     1
100
AcDbLine
 10
58.286788
 20
254.652249
 30
0.0
 11
58.42203
 21
254.787492
 31
0.0
  0
LINE
  5
56F
100
AcDbEntity
  8
LAY-1
  6
CONTINUOUS
 62
     1
100
AcDbLine
 10
58.326936
 20
254.592932
 30
0.0
 11
58.45699
 21
254.722985
 31
0.0
  0
LINE
  5
570
100
AcDbEntity
  8
LAY-1
  6
CONTINUOUS
 62
     1
100
AcDbLine
 10
58.369036
 20
254.535566
 30
0.0
 11
58.494049
 21
254.660579
 31
0.0
  0
LINE
  5
571
100
AcDbEntity
  8
LAY-1
  6
CONTINUOUS
 62
     1
100
AcDbLine
 10
58.413052
 20
254.480117
 30
0.0
 11
58.533165
 21
254.600229
 31
0.0
  0
LINE
  5
572
100
AcDbEntity
  8
LAY-1
  6
CONTINUOUS
 62
     1
100
AcDbLine
 10
58.458961
 20
254.426559
 30
0.0
 11
58.574307
 21
254.541906
 31
0.0
  0
LINE
  5
573
100
AcDbEntity
  8
LAY-1
  6
CONTINUOUS
 62
     1
100
AcDbLine
 10
58.506745
 20
254.374878
 30
0.0
 11
58.617455
 21
254.485588
 31
0.0
  0
LINE
  5
574
100
AcDbEntity
  8
LAY-1
  6
CONTINUOUS
 62
     1
100
AcDbLine
 10
58.556396
 20
254.325063
 30
0.0
 11
58.662598
 21
254.431265
 31
0.0
  0
LINE
  5
575
100
AcDbEntity
  8
LAY-1
  6
CONTINUOUS
 62
     1
100
AcDbLine
 10
58.607914
 20
254.277116
 30
0.0
 11
58.709736
 21
254.378938
 31
0.0
  0
LINE
  5
576
100
AcDbEntity
  8
LAY-1
  6
CONTINUOUS
 62
     1
100
AcDbLine
 10
58.661307
 20
254.231043
 30
0.0
 11
58.758878
 21
254.328614
 31
0.0
  0
LINE
  5
577
100
AcDbEntity
  8
LAY-1
  6
CONTINUOUS
 62
     1
100
AcDbLine
 10
58.71659
 20
254.186861
 30
0.0
 11
58.810044
 21
254.280315
 31
0.0
  0
LINE
  5
578
100
AcDbEntity
  8
LAY-1
  6
CONTINUOUS
 62
     1
100
AcDbLine
 10
58.773788
 20
254.144593
 30
0.0
 11
58.863264
 21
254.234069
 31
0.0
  0
LINE
  5
579
100
AcDbEntity
  8
LAY-1
  6
CONTINUOUS
 62
     1
100
AcDbLine
 10
58.832932
 20
254.104272
 30
0.0
 11
58.918579
 21
254.189919
 31
0.0
  0
LINE
  5
57A
100
AcDbEntity
  8
LAY-1
  6
CONTINUOUS
 62
     1
100
AcDbLine
 10
58.894067
 20
254.065941
 30
0.0
 11
58.976044
 21
254.147918
 31
0.0
  0
LINE
  5
57B
100
AcDbEntity
  8
LAY-1
  6
CONTINUOUS
 62
     1
100
AcDbLine
 10
58.957245
 20
254.029654
 30
0.0
 11
59.035726
 21
254.108134
 31
0.0
  0
LINE
  5
57C
100
AcDbEntity
  8
LAY-1
  6
CONTINUOUS
 62
     1
100
AcDbLine
 10
59.022533
 20
253.995476
 30
0.0
 11
59.097709
 21
254.070652
 31
0.0
  0
LINE
  5
57D
100
AcDbEntity
  8
LAY-1
  6
CONTINUOUS
 62
     1
100
AcDbLine
 10
59.090009
 20
253.963486
 30
0.0
 11
59.162097
 21
254.035574
 31
0.0
  0
LINE
  5
57E
100
AcDbEntity
  8
LAY-1
  6
CONTINUOUS
 62
     1
100
AcDbLine
 10
59.159769
 20
253.93378
 30
0.0
 11
59.229013
 21
254.003025
 31
0.0
  0
LINE
  5
57F
100
AcDbEntity
  8
LAY-1
  6
CONTINUOUS
 62
     1
100
AcDbLine
 10
59.231928
 20
253.906473
 30
0.0
 11
59.298612
 21
253.973158
 31
0.0
  0
LINE
  5
580
100
AcDbEntity
  8
LAY-1
  6
CONTINUOUS
 62
     1
100
AcDbLine
 10
59.306623
 20
253.881703
 30
0.0
 11
59.371079
 21
253.946159
 31
0.0
  0
LINE
  5
581
100
AcDbEntity
  8
LAY-1
  6
CONTINUOUS
 62
     1
100
AcDbLine
 10
59.38402
 20
253.859634
 30
0.0
 11
59.446643
 21
253.922258
 31
0.0
  0
LINE
  5
582
100
AcDbEntity
  8
LAY-1
  6
CONTINUOUS
 62
     1
100
AcDbLine
 10
59.464321
 20
253.84047
 30
0.0
 11
59.525591
 21
253.90174
 31
0.0
  0
LINE
  5
583
100
AcDbEntity
  8
LAY-1
  6
CONTINUOUS
 62
     1
100
AcDbLine
 10
59.547771
 20
253.824455
 30
0.0
 11
59.608282
 21
253.884965
 31
0.0
  0
LINE
  5
584
100
AcDbEntity
  8
LAY-1
  6
CONTINUOUS
 62
     1
100
AcDbLine
 10
59.634678
 20
253.811895
 30
0.0
 11
59.695178
 21
253.872396
 31
0.0
  0
LINE
  5
585
100
AcDbEntity
  8
LAY-1
  6
CONTINUOUS
 62
     1
100
AcDbLine
 10
59.725424
 20
253.803176
 30
0.0
 11
59.786891
 21
253.864643
 31
0.0
  0
LINE
  5
586
100
AcDbEntity
  8
LAY-1
  6
CONTINUOUS
 62
     1
100
AcDbLine
 10
59.820504
 20
253.79879
 30
0.0
 11
59.859334
 21
253.83762
 31
0.0
  0
LINE
  5
587
100
AcDbEntity
  8
LAY-1
  6
CONTINUOUS
 62
     1
100
AcDbLine
 10
58.80157
 20
257.852602
 30
0.0
 11
58.835645
 21
257.886677
 31
0.0
  0
LINE
  5
588
100
AcDbEntity
  8
LAY-1
  6
CONTINUOUS
 62
     1
100
AcDbLine
 10
58.82541
 20
257.776977
 30
0.0
 11
58.898782
 21
257.850349
 31
0.0
  0
LINE
  5
589
100
AcDbEntity
  8
LAY-1
  6
CONTINUOUS
 62
     1
100
AcDbLine
 10
58.84925
 20
257.701352
 30
0.0
 11
58.96192
 21
257.814021
 31
0.0
  0
LINE
  5
58A
100
AcDbEntity
  8
LAY-1
  6
CONTINUOUS
 62
     1
100
AcDbLine
 10
58.87309
 20
257.625726
 30
0.0
 11
59.025057
 21
257.777693
 31
0.0
  0
LINE
  5
58B
100
AcDbEntity
  8
LAY-1
  6
CONTINUOUS
 62
     1
100
AcDbLine
 10
58.896931
 20
257.550101
 30
0.0
 11
59.088195
 21
257.741365
 31
0.0
  0
LINE
  5
58C
100
AcDbEntity
  8
LAY-1
  6
CONTINUOUS
 62
     1
100
AcDbLine
 10
58.920771
 20
257.474476
 30
0.0
 11
59.151332
 21
257.705037
 31
0.0
  0
LINE
  5
58D
100
AcDbEntity
  8
LAY-1
  6
CONTINUOUS
 62
     1
100
AcDbLine
 10
58.944611
 20
257.39885
 30
0.0
 11
59.21447
 21
257.668709
 31
0.0
  0
LINE
  5
58E
100
AcDbEntity
  8
LAY-1
  6
CONTINUOUS
 62
     1
100
AcDbLine
 10
58.968452
 20
257.323225
 30
0.0
 11
59.277607
 21
257.632381
 31
0.0
  0
LINE
  5
58F
100
AcDbEntity
  8
LAY-1
  6
CONTINUOUS
 62
     1
100
AcDbLine
 10
58.968452
 20
257.223759
 30
0.0
 11
59.340745
 21
257.596053
 31
0.0
  0
LINE
  5
590
100
AcDbEntity
  8
LAY-1
  6
CONTINUOUS
 62
     1
100
AcDbLine
 10
58.968452
 20
257.124294
 30
0.0
 11
59.403882
 21
257.559724
 31
0.0
  0
LINE
  5
591
100
AcDbEntity
  8
LAY-1
  6
CONTINUOUS
 62
     1
100
AcDbLine
 10
58.968452
 20
257.024828
 30
0.0
 11
59.46702
 21
257.523396
 31
0.0
  0
LINE
  5
592
100
AcDbEntity
  8
LAY-1
  6
CONTINUOUS
 62
     1
100
AcDbLine
 10
58.968452
 20
256.925362
 30
0.0
 11
59.568839
 21
257.52575
 31
0.0
  0
LINE
  5
593
100
AcDbEntity
  8
LAY-1
  6
CONTINUOUS
 62
     1
100
AcDbLine
 10
58.968452
 20
256.825897
 30
0.0
 11
59.578003
 21
257.435448
 31
0.0
  0
LINE
  5
594
100
AcDbEntity
  8
LAY-1
  6
CONTINUOUS
 62
     1
100
AcDbLine
 10
58.968452
 20
256.726431
 30
0.0
 11
59.578003
 21
257.335982
 31
0.0
  0
LINE
  5
595
100
AcDbEntity
  8
LAY-1
  6
CONTINUOUS
 62
     1
100
AcDbLine
 10
58.968452
 20
256.626966
 30
0.0
 11
59.578003
 21
257.236517
 31
0.0
  0
LINE
  5
596
100
AcDbEntity
  8
LAY-1
  6
CONTINUOUS
 62
     1
100
AcDbLine
 10
58.683203
 20
256.242252
 30
0.0
 11
58.78463
 21
256.343679
 31
0.0
  0
LINE
  5
597
100
AcDbEntity
  8
LAY-1
  6
CONTINUOUS
 62
     1
100
AcDbLine
 10
58.968452
 20
256.5275
 30
0.0
 11
59.578003
 21
257.137051
 31
0.0
  0
LINE
  5
598
100
AcDbEntity
  8
LAY-1
  6
CONTINUOUS
 62
     1
100
AcDbLine
 10
58.547331
 20
256.006914
 30
0.0
 11
58.834363
 21
256.293946
 31
0.0
  0
LINE
  5
599
100
AcDbEntity
  8
LAY-1
  6
CONTINUOUS
 62
     1
100
AcDbLine
 10
58.968452
 20
256.428034
 30
0.0
 11
59.578003
 21
257.037585
 31
0.0
  0
LINE
  5
59A
100
AcDbEntity
  8
LAY-1
  6
CONTINUOUS
 62
     1
100
AcDbLine
 10
58.411458
 20
255.771576
 30
0.0
 11
58.884096
 21
256.244213
 31
0.0
  0
LINE
  5
59B
100
AcDbEntity
  8
LAY-1
  6
CONTINUOUS
 62
     1
100
AcDbLine
 10
58.968452
 20
256.328569
 30
0.0
 11
59.578003
 21
256.93812
 31
0.0
  0
LINE
  5
59C
100
AcDbEntity
  8
LAY-1
  6
CONTINUOUS
 62
     1
100
AcDbLine
 10
58.275586
 20
255.536237
 30
0.0
 11
59.578003
 21
256.838654
 31
0.0
  0
LINE
  5
59D
100
AcDbEntity
  8
LAY-1
  6
CONTINUOUS
 62
     1
100
AcDbLine
 10
58.501268
 20
255.662455
 30
0.0
 11
59.578003
 21
256.739189
 31
0.0
  0
LINE
  5
59E
100
AcDbEntity
  8
LAY-1
  6
CONTINUOUS
 62
     1
100
AcDbLine
 10
58.611669
 20
255.673389
 30
0.0
 11
59.578003
 21
256.639723
 31
0.0
  0
LINE
  5
59F
100
AcDbEntity
  8
LAY-1
  6
CONTINUOUS
 62
     1
100
AcDbLine
 10
58.711134
 20
255.673389
 30
0.0
 11
59.578003
 21
256.540257
 31
0.0
  0
LINE
  5
5A0
100
AcDbEntity
  8
LAY-1
  6
CONTINUOUS
 62
     1
100
AcDbLine
 10
58.8106
 20
255.673389
 30
0.0
 11
59.578003
 21
256.440792
 31
0.0
  0
LINE
  5
5A1
100
AcDbEntity
  8
LAY-1
  6
CONTINUOUS
 62
     1
100
AcDbLine
 10
58.910065
 20
255.673389
 30
0.0
 11
59.578003
 21
256.341326
 31
0.0
  0
LINE
  5
5A2
100
AcDbEntity
  8
LAY-1
  6
CONTINUOUS
 62
     1
100
AcDbLine
 10
58.968452
 20
255.63231
 30
0.0
 11
59.578003
 21
256.241861
 31
0.0
  0
LINE
  5
5A3
100
AcDbEntity
  8
LAY-1
  6
CONTINUOUS
 62
     1
100
AcDbLine
 10
58.968452
 20
255.532844
 30
0.0
 11
59.665798
 21
256.230191
 31
0.0
  0
LINE
  5
5A4
100
AcDbEntity
  8
LAY-1
  6
CONTINUOUS
 62
     1
100
AcDbLine
 10
58.968452
 20
255.433378
 30
0.0
 11
59.765264
 21
256.230191
 31
0.0
  0
LINE
  5
5A5
100
AcDbEntity
  8
LAY-1
  6
CONTINUOUS
 62
     1
100
AcDbLine
 10
58.968452
 20
255.333913
 30
0.0
 11
59.864729
 21
256.230191
 31
0.0
  0
LINE
  5
5A6
100
AcDbEntity
  8
LAY-1
  6
CONTINUOUS
 62
     1
100
AcDbLine
 10
58.968452
 20
255.234447
 30
0.0
 11
59.964195
 21
256.230191
 31
0.0
  0
LINE
  5
5A7
100
AcDbEntity
  8
LAY-1
  6
CONTINUOUS
 62
     1
100
AcDbLine
 10
58.968452
 20
255.134981
 30
0.0
 11
60.063661
 21
256.230191
 31
0.0
  0
LINE
  5
5A8
100
AcDbEntity
  8
LAY-1
  6
CONTINUOUS
 62
     1
100
AcDbLine
 10
58.750609
 20
254.817673
 30
0.0
 11
58.778931
 21
254.845996
 31
0.0
  0
LINE
  5
5A9
100
AcDbEntity
  8
LAY-1
  6
CONTINUOUS
 62
     1
100
AcDbLine
 10
58.968452
 20
255.035516
 30
0.0
 11
59.578003
 21
255.645067
 31
0.0
  0
LINE
  5
5AA
100
AcDbEntity
  8
LAY-1
  6
CONTINUOUS
 62
     1
100
AcDbLine
 10
59.606325
 20
255.673389
 30
0.0
 11
60.163126
 21
256.230191
 31
0.0
  0
LINE
  5
5AB
100
AcDbEntity
  8
LAY-1
  6
CONTINUOUS
 62
     1
100
AcDbLine
 10
58.850075
 20
254.817673
 30
0.0
 11
59.578003
 21
255.545601
 31
0.0
  0
LINE
  5
5AC
100
AcDbEntity
  8
LAY-1
  6
CONTINUOUS
 62
     1
100
AcDbLine
 10
59.70579
 20
255.673389
 30
0.0
 11
60.262592
 21
256.230191
 31
0.0
  0
LINE
  5
5AD
100
AcDbEntity
  8
LAY-1
  6
CONTINUOUS
 62
     1
100
AcDbLine
 10
58.94954
 20
254.817673
 30
0.0
 11
59.578003
 21
255.446136
 31
0.0
  0
LINE
  5
5AE
100
AcDbEntity
  8
LAY-1
  6
CONTINUOUS
 62
     1
100
AcDbLine
 10
59.805256
 20
255.673389
 30
0.0
 11
60.362057
 21
256.230191
 31
0.0
  0
LINE
  5
5AF
100
AcDbEntity
  8
LAY-1
  6
CONTINUOUS
 62
     1
100
AcDbLine
 10
59.049006
 20
254.817673
 30
0.0
 11
59.578003
 21
255.34667
 31
0.0
  0
LINE
  5
5B0
100
AcDbEntity
  8
LAY-1
  6
CONTINUOUS
 62
     1
100
AcDbLine
 10
59.859334
 20
255.628001
 30
0.0
 11
60.461523
 21
256.230191
 31
0.0
  0
LINE
  5
5B1
100
AcDbEntity
  8
LAY-1
  6
CONTINUOUS
 62
     1
100
AcDbLine
 10
59.148471
 20
254.817673
 30
0.0
 11
59.578003
 21
255.247204
 31
0.0
  0
LINE
  5
5B2
100
AcDbEntity
  8
LAY-1
  6
CONTINUOUS
 62
     1
100
AcDbLine
 10
59.859334
 20
255.528536
 30
0.0
 11
60.560989
 21
256.230191
 31
0.0
  0
LINE
  5
5B3
100
AcDbEntity
  8
LAY-1
  6
CONTINUOUS
 62
     1
100
AcDbLine
 10
59.247937
 20
254.817673
 30
0.0
 11
59.578003
 21
255.147739
 31
0.0
  0
LINE
  5
5B4
100
AcDbEntity
  8
LAY-1
  6
CONTINUOUS
 62
     1
100
AcDbLine
 10
59.859334
 20
255.42907
 30
0.0
 11
60.660454
 21
256.230191
 31
0.0
  0
LINE
  5
5B5
100
AcDbEntity
  8
LAY-1
  6
CONTINUOUS
 62
     1
100
AcDbLine
 10
59.347403
 20
254.817673
 30
0.0
 11
59.578003
 21
255.048273
 31
0.0
  0
LINE
  5
5B6
100
AcDbEntity
  8
LAY-1
  6
CONTINUOUS
 62
     1
100
AcDbLine
 10
59.859334
 20
255.329604
 30
0.0
 11
60.75992
 21
256.230191
 31
0.0
  0
LINE
  5
5B7
100
AcDbEntity
  8
LAY-1
  6
CONTINUOUS
 62
     1
100
AcDbLine
 10
59.446868
 20
254.817673
 30
0.0
 11
59.578003
 21
254.948808
 31
0.0
  0
LINE
  5
5B8
100
AcDbEntity
  8
LAY-1
  6
CONTINUOUS
 62
     1
100
AcDbLine
 10
59.859334
 20
255.230139
 30
0.0
 11
60.97543
 21
256.346235
 31
0.0
  0
LINE
  5
5B9
100
AcDbEntity
  8
LAY-1
  6
CONTINUOUS
 62
     1
100
AcDbLine
 10
59.546334
 20
254.817673
 30
0.0
 11
59.641595
 21
254.912934
 31
0.0
  0
LINE
  5
5BA
100
AcDbEntity
  8
LAY-1
  6
CONTINUOUS
 62
     1
100
AcDbLine
 10
59.859334
 20
255.130673
 30
0.0
 11
61.011837
 21
256.283176
 31
0.0
  0
LINE
  5
5BB
100
AcDbEntity
  8
LAY-1
  6
CONTINUOUS
 62
     1
100
AcDbLine
 10
59.645799
 20
254.817673
 30
0.0
 11
59.710788
 21
254.882662
 31
0.0
  0
LINE
  5
5BC
100
AcDbEntity
  8
LAY-1
  6
CONTINUOUS
 62
     1
100
AcDbLine
 10
59.859334
 20
255.031208
 30
0.0
 11
61.048243
 21
256.220117
 31
0.0
  0
LINE
  5
5BD
100
AcDbEntity
  8
LAY-1
  6
CONTINUOUS
 62
     1
100
AcDbLine
 10
59.745265
 20
254.817673
 30
0.0
 11
59.779982
 21
254.85239
 31
0.0
  0
LINE
  5
5BE
100
AcDbEntity
  8
LAY-1
  6
CONTINUOUS
 62
     1
100
AcDbLine
 10
59.859334
 20
254.931742
 30
0.0
 11
60.55094
 21
255.623348
 31
0.0
  0
LINE
  5
5BF
100
AcDbEntity
  8
LAY-1
  6
CONTINUOUS
 62
     1
100
AcDbLine
 10
60.600981
 20
255.673389
 30
0.0
 11
61.08465
 21
256.157059
 31
0.0
  0
LINE
  5
5C0
100
AcDbEntity
  8
LAY-1
  6
CONTINUOUS
 62
     1
100
AcDbLine
 10
59.844731
 20
254.817673
 30
0.0
 11
59.849175
 21
254.822118
 31
0.0
  0
LINE
  5
5C1
100
AcDbEntity
  8
LAY-1
  6
CONTINUOUS
 62
     1
100
AcDbLine
 10
59.859334
 20
254.832276
 30
0.0
 11
60.55094
 21
255.523882
 31
0.0
  0
LINE
  5
5C2
100
AcDbEntity
  8
LAY-1
  6
CONTINUOUS
 62
     1
100
AcDbLine
 10
60.700446
 20
255.673389
 30
0.0
 11
61.121057
 21
256.094
 31
0.0
  0
LINE
  5
5C3
100
AcDbEntity
  8
LAY-1
  6
CONTINUOUS
 62
     1
100
AcDbLine
 10
59.859334
 20
254.732811
 30
0.0
 11
60.55094
 21
255.424417
 31
0.0
  0
LINE
  5
5C4
100
AcDbEntity
  8
LAY-1
  6
CONTINUOUS
 62
     1
100
AcDbLine
 10
60.799912
 20
255.673389
 30
0.0
 11
61.157464
 21
256.030941
 31
0.0
  0
LINE
  5
5C5
100
AcDbEntity
  8
LAY-1
  6
CONTINUOUS
 62
     1
100
AcDbLine
 10
59.859334
 20
254.633345
 30
0.0
 11
60.55094
 21
255.324951
 31
0.0
  0
LINE
  5
5C6
100
AcDbEntity
  8
LAY-1
  6
CONTINUOUS
 62
     1
100
AcDbLine
 10
60.899378
 20
255.673389
 30
0.0
 11
61.193871
 21
255.967883
 31
0.0
  0
LINE
  5
5C7
100
AcDbEntity
  8
LAY-1
  6
CONTINUOUS
 62
     1
100
AcDbLine
 10
59.859334
 20
254.53388
 30
0.0
 11
60.55094
 21
255.225485
 31
0.0
  0
LINE
  5
5C8
100
AcDbEntity
  8
LAY-1
  6
CONTINUOUS
 62
     1
100
AcDbLine
 10
60.998843
 20
255.673389
 30
0.0
 11
61.230278
 21
255.904824
 31
0.0
  0
LINE
  5
5C9
100
AcDbEntity
  8
LAY-1
  6
CONTINUOUS
 62
     1
100
AcDbLine
 10
59.859334
 20
254.434414
 30
0.0
 11
60.55094
 21
255.12602
 31
0.0
  0
LINE
  5
5CA
100
AcDbEntity
  8
LAY-1
  6
CONTINUOUS
 62
     1
100
AcDbLine
 10
61.098309
 20
255.673389
 30
0.0
 11
61.266685
 21
255.841765
 31
0.0
  0
LINE
  5
5CB
100
AcDbEntity
  8
LAY-1
  6
CONTINUOUS
 62
     1
100
AcDbLine
 10
59.859334
 20
254.334948
 30
0.0
 11
60.55094
 21
255.026554
 31
0.0
  0
LINE
  5
5CC
100
AcDbEntity
  8
LAY-1
  6
CONTINUOUS
 62
     1
100
AcDbLine
 10
61.197775
 20
255.673389
 30
0.0
 11
61.303092
 21
255.778707
 31
0.0
  0
LINE
  5
5CD
100
AcDbEntity
  8
LAY-1
  6
CONTINUOUS
 62
     1
100
AcDbLine
 10
59.859334
 20
254.235483
 30
0.0
 11
60.55094
 21
254.927089
 31
0.0
  0
LINE
  5
5CE
100
AcDbEntity
  8
LAY-1
  6
CONTINUOUS
 62
     1
100
AcDbLine
 10
61.261084
 20
255.637233
 30
0.0
 11
61.339499
 21
255.715648
 31
0.0
  0
LINE
  5
5CF
100
AcDbEntity
  8
LAY-1
  6
CONTINUOUS
 62
     1
100
AcDbLine
 10
59.859334
 20
254.136017
 30
0.0
 11
60.55094
 21
254.827623
 31
0.0
  0
LINE
  5
5D0
100
AcDbEntity
  8
LAY-1
  6
CONTINUOUS
 62
     1
100
AcDbLine
 10
61.324143
 20
255.600826
 30
0.0
 11
61.375906
 21
255.652589
 31
0.0
  0
LINE
  5
5D1
100
AcDbEntity
  8
LAY-1
  6
CONTINUOUS
 62
     1
100
AcDbLine
 10
59.859334
 20
254.036551
 30
0.0
 11
60.55094
 21
254.728157
 31
0.0
  0
LINE
  5
5D2
100
AcDbEntity
  8
LAY-1
  6
CONTINUOUS
 62
     1
100
AcDbLine
 10
61.387201
 20
255.564419
 30
0.0
 11
61.412313
 21
255.589531
 31
0.0
  0
LINE
  5
5D3
100
AcDbEntity
  8
LAY-1
  6
CONTINUOUS
 62
     1
100
AcDbLine
 10
59.859334
 20
253.937086
 30
0.0
 11
60.55094
 21
254.628692
 31
0.0
  0
LINE
  5
5D4
100
AcDbEntity
  8
LAY-1
  6
CONTINUOUS
 62
     1
100
AcDbLine
 10
59.859334
 20
253.83762
 30
0.0
 11
60.55094
 21
254.529226
 31
0.0
  0
LINE
  5
5D5
100
AcDbEntity
  8
LAY-1
  6
CONTINUOUS
 62
     1
100
AcDbLine
 10
59.737334
 20
253.616154
 30
0.0
 11
60.55094
 21
254.429761
 31
0.0
  0
LINE
  5
5D6
100
AcDbEntity
  8
LAY-1
  6
CONTINUOUS
 62
     1
100
AcDbLine
 10
59.836799
 20
253.616154
 30
0.0
 11
60.55094
 21
254.330295
 31
0.0
  0
LINE
  5
5D7
100
AcDbEntity
  8
LAY-1
  6
CONTINUOUS
 62
     1
100
AcDbLine
 10
59.936265
 20
253.616154
 30
0.0
 11
60.55094
 21
254.230829
 31
0.0
  0
LINE
  5
5D8
100
AcDbEntity
  8
LAY-1
  6
CONTINUOUS
 62
     1
100
AcDbLine
 10
60.03573
 20
253.616154
 30
0.0
 11
60.55094
 21
254.131364
 31
0.0
  0
LINE
  5
5D9
100
AcDbEntity
  8
LAY-1
  6
CONTINUOUS
 62
     1
100
AcDbLine
 10
60.135196
 20
253.616154
 30
0.0
 11
60.55094
 21
254.031898
 31
0.0
  0
LINE
  5
5DA
100
AcDbEntity
  8
LAY-1
  6
CONTINUOUS
 62
     1
100
AcDbLine
 10
60.234662
 20
253.616154
 30
0.0
 11
60.55094
 21
253.932433
 31
0.0
  0
LINE
  5
5DB
100
AcDbEntity
  8
LAY-1
  6
CONTINUOUS
 62
     1
100
AcDbLine
 10
60.334127
 20
253.616154
 30
0.0
 11
60.55094
 21
253.832967
 31
0.0
  0
LINE
  5
5DC
100
AcDbEntity
  8
LAY-1
  6
CONTINUOUS
 62
     1
100
AcDbLine
 10
60.433593
 20
253.616154
 30
0.0
 11
60.578949
 21
253.761511
 31
0.0
  0
LINE
  5
5DD
100
AcDbEntity
  8
LAY-1
  6
CONTINUOUS
 62
     1
100
AcDbLine
 10
60.533058
 20
253.616154
 30
0.0
 11
60.631891
 21
253.714987
 31
0.0
  0
LINE
  5
5DE
100
AcDbEntity
  8
LAY-1
  6
CONTINUOUS
 62
     1
100
AcDbLine
 10
60.632524
 20
253.616154
 30
0.0
 11
60.684832
 21
253.668462
 31
0.0
  0
LINE
  5
5DF
100
AcDbEntity
  8
LAY-1
  6
CONTINUOUS
 62
     1
100
AcDbLine
 10
60.73199
 20
253.616154
 30
0.0
 11
60.737773
 21
253.621938
 31
0.0
  0
LINE
  5
5E0
100
AcDbEntity
  8
LAY-1
  6
CONTINUOUS
 62
     1
100
AcDbLine
 10
59.567476
 20
257.524387
 30
0.0
 11
59.568839
 21
257.52575
 31
0.0
  0
LINE
  5
5E1
100
AcDbEntity
  8
LAY-1
  6
CONTINUOUS
 62
     1
100
AcDbLine
 10
59.609025
 20
257.466471
 30
0.0
 11
59.682597
 21
257.540042
 31
0.0
  0
LINE
  5
5E2
100
AcDbEntity
  8
LAY-1
  6
CONTINUOUS
 62
     1
100
AcDbLine
 10
59.720765
 20
257.478744
 30
0.0
 11
59.789094
 21
257.547074
 31
0.0
  0
LINE
  5
5E3
100
AcDbEntity
  8
LAY-1
  6
CONTINUOUS
 62
     1
100
AcDbLine
 10
59.82561
 20
257.484124
 30
0.0
 11
59.889631
 21
257.548145
 31
0.0
  0
LINE
  5
5E4
100
AcDbEntity
  8
LAY-1
  6
CONTINUOUS
 62
     1
100
AcDbLine
 10
59.92351
 20
257.482558
 30
0.0
 11
59.985118
 21
257.544166
 31
0.0
  0
LINE
  5
5E5
100
AcDbEntity
  8
LAY-1
  6
CONTINUOUS
 62
     1
100
AcDbLine
 10
60.015679
 20
257.475262
 30
0.0
 11
60.076221
 21
257.535804
 31
0.0
  0
LINE
  5
5E6
100
AcDbEntity
  8
LAY-1
  6
CONTINUOUS
 62
     1
100
AcDbLine
 10
60.102969
 20
257.463087
 30
0.0
 11
60.163446
 21
257.523563
 31
0.0
  0
LINE
  5
5E7
100
AcDbEntity
  8
LAY-1
  6
CONTINUOUS
 62
     1
100
AcDbLine
 10
60.186007
 20
257.446659
 30
0.0
 11
60.247186
 21
257.507837
 31
0.0
  0
LINE
  5
5E8
100
AcDbEntity
  8
LAY-1
  6
CONTINUOUS
 62
     1
100
AcDbLine
 10
60.265266
 20
257.426453
 30
0.0
 11
60.327751
 21
257.488937
 31
0.0
  0
LINE
  5
5E9
100
AcDbEntity
  8
LAY-1
  6
CONTINUOUS
 62
     1
100
AcDbLine
 10
60.341114
 20
257.402835
 30
0.0
 11
60.405393
 21
257.467114
 31
0.0
  0
LINE
  5
5EA
100
AcDbEntity
  8
LAY-1
  6
CONTINUOUS
 62
     1
100
AcDbLine
 10
60.413842
 20
257.376097
 30
0.0
 11
60.480317
 21
257.442572
 31
0.0
  0
LINE
  5
5EB
100
AcDbEntity
  8
LAY-1
  6
CONTINUOUS
 62
     1
100
AcDbLine
 10
60.483683
 20
257.346472
 30
0.0
 11
60.552692
 21
257.415481
 31
0.0
  0
LINE
  5
5EC
100
AcDbEntity
  8
LAY-1
  6
CONTINUOUS
 62
     1
100
AcDbLine
 10
60.550827
 20
257.314151
 30
0.0
 11
60.622656
 21
257.38598
 31
0.0
  0
LINE
  5
5ED
100
AcDbEntity
  8
LAY-1
  6
CONTINUOUS
 62
     1
100
AcDbLine
 10
60.61543
 20
257.279288
 30
0.0
 11
60.690328
 21
257.354186
 31
0.0
  0
LINE
  5
5EE
100
AcDbEntity
  8
LAY-1
  6
CONTINUOUS
 62
     1
100
AcDbLine
 10
60.677619
 20
257.242012
 30
0.0
 11
60.755803
 21
257.320196
 31
0.0
  0
LINE
  5
5EF
100
AcDbEntity
  8
LAY-1
  6
CONTINUOUS
 62
     1
100
AcDbLine
 10
60.737499
 20
257.202426
 30
0.0
 11
60.819163
 21
257.28409
 31
0.0
  0
LINE
  5
5F0
100
AcDbEntity
  8
LAY-1
  6
CONTINUOUS
 62
     1
100
AcDbLine
 10
60.795154
 20
257.160615
 30
0.0
 11
60.880474
 21
257.245935
 31
0.0
  0
LINE
  5
5F1
100
AcDbEntity
  8
LAY-1
  6
CONTINUOUS
 62
     1
100
AcDbLine
 10
60.850655
 20
257.116651
 30
0.0
 11
60.939791
 21
257.205786
 31
0.0
  0
LINE
  5
5F2
100
AcDbEntity
  8
LAY-1
  6
CONTINUOUS
 62
     1
100
AcDbLine
 10
60.904056
 20
257.070586
 30
0.0
 11
60.997157
 21
257.163687
 31
0.0
  0
LINE
  5
5F3
100
AcDbEntity
  8
LAY-1
  6
CONTINUOUS
 62
     1
100
AcDbLine
 10
60.9554
 20
257.022465
 30
0.0
 11
61.052606
 21
257.119671
 31
0.0
  0
LINE
  5
5F4
100
AcDbEntity
  8
LAY-1
  6
CONTINUOUS
 62
     1
100
AcDbLine
 10
61.004719
 20
256.972317
 30
0.0
 11
61.106164
 21
257.073762
 31
0.0
  0
LINE
  5
5F5
100
AcDbEntity
  8
LAY-1
  6
CONTINUOUS
 62
     1
100
AcDbLine
 10
61.052031
 20
256.920164
 30
0.0
 11
61.157845
 21
257.025978
 31
0.0
  0
LINE
  5
5F6
100
AcDbEntity
  8
LAY-1
  6
CONTINUOUS
 62
     1
100
AcDbLine
 10
61.097348
 20
256.866016
 30
0.0
 11
61.207659
 21
256.976327
 31
0.0
  0
LINE
  5
5F7
100
AcDbEntity
  8
LAY-1
  6
CONTINUOUS
 62
     1
100
AcDbLine
 10
61.140671
 20
256.809873
 30
0.0
 11
61.255607
 21
256.924809
 31
0.0
  0
LINE
  5
5F8
100
AcDbEntity
  8
LAY-1
  6
CONTINUOUS
 62
     1
100
AcDbLine
 10
61.181989
 20
256.751725
 30
0.0
 11
61.30168
 21
256.871416
 31
0.0
  0
LINE
  5
5F9
100
AcDbEntity
  8
LAY-1
  6
CONTINUOUS
 62
     1
100
AcDbLine
 10
61.221283
 20
256.691553
 30
0.0
 11
61.345862
 21
256.816133
 31
0.0
  0
LINE
  5
5FA
100
AcDbEntity
  8
LAY-1
  6
CONTINUOUS
 62
     1
100
AcDbLine
 10
61.258523
 20
256.629328
 30
0.0
 11
61.38813
 21
256.758935
 31
0.0
  0
LINE
  5
5FB
100
AcDbEntity
  8
LAY-1
  6
CONTINUOUS
 62
     1
100
AcDbLine
 10
61.293668
 20
256.565007
 30
0.0
 11
61.428451
 21
256.699791
 31
0.0
  0
LINE
  5
5FC
100
AcDbEntity
  8
LAY-1
  6
CONTINUOUS
 62
     1
100
AcDbLine
 10
61.326663
 20
256.498537
 30
0.0
 11
61.466782
 21
256.638656
 31
0.0
  0
LINE
  5
5FD
100
AcDbEntity
  8
LAY-1
  6
CONTINUOUS
 62
     1
100
AcDbLine
 10
61.357442
 20
256.42985
 30
0.0
 11
61.503069
 21
256.575477
 31
0.0
  0
LINE
  5
5FE
100
AcDbEntity
  8
LAY-1
  6
CONTINUOUS
 62
     1
100
AcDbLine
 10
61.385919
 20
256.358861
 30
0.0
 11
61.537247
 21
256.51019
 31
0.0
  0
LINE
  5
5FF
100
AcDbEntity
  8
LAY-1
  6
CONTINUOUS
 62
     1
100
AcDbLine
 10
61.411992
 20
256.285469
 30
0.0
 11
61.569237
 21
256.442714
 31
0.0
  0
LINE
  5
600
100
AcDbEntity
  8
LAY-1
  6
CONTINUOUS
 62
     1
100
AcDbLine
 10
61.435535
 20
256.209547
 30
0.0
 11
61.598942
 21
256.372954
 31
0.0
  0
LINE
  5
601
100
AcDbEntity
  8
LAY-1
  6
CONTINUOUS
 62
     1
100
AcDbLine
 10
61.456397
 20
256.130943
 30
0.0
 11
61.626249
 21
256.300795
 31
0.0
  0
LINE
  5
602
100
AcDbEntity
  8
LAY-1
  6
CONTINUOUS
 62
     1
100
AcDbLine
 10
61.47439
 20
256.04947
 30
0.0
 11
61.65102
 21
256.2261
 31
0.0
  0
LINE
  5
603
100
AcDbEntity
  8
LAY-1
  6
CONTINUOUS
 62
     1
100
AcDbLine
 10
61.489286
 20
255.964901
 30
0.0
 11
61.673088
 21
256.148703
 31
0.0
  0
LINE
  5
604
100
AcDbEntity
  8
LAY-1
  6
CONTINUOUS
 62
     1
100
AcDbLine
 10
61.500799
 20
255.876948
 30
0.0
 11
61.692253
 21
256.068402
 31
0.0
  0
LINE
  5
605
100
AcDbEntity
  8
LAY-1
  6
CONTINUOUS
 62
     1
100
AcDbLine
 10
61.508568
 20
255.785252
 30
0.0
 11
61.708268
 21
255.984951
 31
0.0
  0
LINE
  5
606
100
AcDbEntity
  8
LAY-1
  6
CONTINUOUS
 62
     1
100
AcDbLine
 10
61.512132
 20
255.689349
 30
0.0
 11
61.720828
 21
255.898045
 31
0.0
  0
LINE
  5
607
100
AcDbEntity
  8
LAY-1
  6
CONTINUOUS
 62
     1
100
AcDbLine
 10
61.510879
 20
255.588631
 30
0.0
 11
61.729547
 21
255.807299
 31
0.0
  0
LINE
  5
608
100
AcDbEntity
  8
LAY-1
  6
CONTINUOUS
 62
     1
100
AcDbLine
 10
61.503982
 20
255.482268
 30
0.0
 11
61.733933
 21
255.712219
 31
0.0
  0
LINE
  5
609
100
AcDbEntity
  8
LAY-1
  6
CONTINUOUS
 62
     1
100
AcDbLine
 10
61.490265
 20
255.369086
 30
0.0
 11
61.733335
 21
255.612156
 31
0.0
  0
LINE
  5
60A
100
AcDbEntity
  8
LAY-1
  6
CONTINUOUS
 62
     1
100
AcDbLine
 10
61.467967
 20
255.247323
 30
0.0
 11
61.726868
 21
255.506223
 31
0.0
  0
LINE
  5
60B
100
AcDbEntity
  8
LAY-1
  6
CONTINUOUS
 62
     1
100
AcDbLine
 10
61.434218
 20
255.114108
 30
0.0
 11
61.713277
 21
255.393166
 31
0.0
  0
LINE
  5
60C
100
AcDbEntity
  8
LAY-1
  6
CONTINUOUS
 62
     1
100
AcDbLine
 10
61.383712
 20
254.964136
 30
0.0
 11
61.690668
 21
255.271092
 31
0.0
  0
LINE
  5
60D
100
AcDbEntity
  8
LAY-1
  6
CONTINUOUS
 62
     1
100
AcDbLine
 10
61.304108
 20
254.785067
 30
0.0
 11
61.655945
 21
255.136904
 31
0.0
  0
LINE
  5
60E
100
AcDbEntity
  8
LAY-1
  6
CONTINUOUS
 62
     1
100
AcDbLine
 10
60.55094
 20
253.932433
 30
0.0
 11
60.789244
 21
254.170737
 31
0.0
  0
LINE
  5
60F
100
AcDbEntity
  8
LAY-1
  6
CONTINUOUS
 62
     1
100
AcDbLine
 10
61.141748
 20
254.523241
 30
0.0
 11
61.603322
 21
254.984815
 31
0.0
  0
LINE
  5
610
100
AcDbEntity
  8
LAY-1
  6
CONTINUOUS
 62
     1
100
AcDbLine
 10
60.731618
 20
254.013645
 30
0.0
 11
61.519077
 21
254.801105
 31
0.0
  0
LINE
  5
611
100
AcDbEntity
  8
LAY-1
  6
CONTINUOUS
 62
     1
100
AcDbLine
 10
61.011909
 20
254.194471
 30
0.0
 11
61.338252
 21
254.520813
 31
0.0
  0
LINE
  5
612
100
AcDbEntity
  8
LAY-1
  6
CONTINUOUS
 62
     1
100
AcDbLine
 10
59.642474
 20
253.616154
 30
0.0
 11
60.744355
 21
253.616154
 31
0.0
  0
LINE
  5
613
100
AcDbEntity
  8
LAY-1
  6
CONTINUOUS
 62
     1
100
AcDbLine
 10
60.744355
 20
253.616154
 30
0.0
 11
60.55094
 21
253.786125
 31
0.0
  0
LINE
  5
614
100
AcDbEntity
  8
LAY-1
  6
CONTINUOUS
 62
     1
100
AcDbLine
 10
60.55094
 20
255.673389
 30
0.0
 11
61.19846
 21
255.673389
 31
0.0
  0
LINE
  5
615
100
AcDbEntity
  8
LAY-1
  6
CONTINUOUS
 62
     1
100
AcDbLine
 10
61.19846
 20
255.673389
 30
0.0
 11
61.446616
 21
255.530116
 31
0.0
  0
LINE
  5
616
100
AcDbEntity
  8
LAY-1
  6
CONTINUOUS
 62
     1
100
AcDbLine
 10
61.446616
 20
255.530116
 30
0.0
 11
60.961214
 21
256.370856
 31
0.0
  0
LINE
  5
617
100
AcDbEntity
  8
LAY-1
  6
CONTINUOUS
 62
     1
100
AcDbLine
 10
60.961214
 20
256.370856
 30
0.0
 11
60.820549
 21
256.230191
 31
0.0
  0
LINE
  5
618
100
AcDbEntity
  8
LAY-1
  6
CONTINUOUS
 62
     1
100
AcDbLine
 10
60.820549
 20
256.230191
 30
0.0
 11
59.578003
 21
256.230191
 31
0.0
  0
LINE
  5
619
100
AcDbEntity
  8
LAY-1
  6
CONTINUOUS
 62
     1
100
AcDbLine
 10
59.578003
 20
256.230191
 30
0.0
 11
59.578003
 21
257.459539
 31
0.0
  0
LINE
  5
61A
100
AcDbEntity
  8
LAY-1
  6
CONTINUOUS
 62
     1
100
AcDbLine
 10
58.898119
 20
256.230191
 30
0.0
 11
58.757453
 21
256.370856
 31
0.0
  0
LINE
  5
61B
100
AcDbEntity
  8
LAY-1
  6
CONTINUOUS
 62
     1
100
AcDbLine
 10
58.757453
 20
256.370856
 30
0.0
 11
58.272052
 21
255.530116
 31
0.0
  0
LINE
  5
61C
100
AcDbEntity
  8
LAY-1
  6
CONTINUOUS
 62
     1
100
AcDbLine
 10
58.272052
 20
255.530116
 30
0.0
 11
58.520208
 21
255.673389
 31
0.0
  0
LINE
  5
61D
100
AcDbEntity
  8
LAY-1
  6
CONTINUOUS
 62
     1
100
AcDbLine
 10
58.520208
 20
255.673389
 30
0.0
 11
58.968452
 21
255.673389
 31
0.0
  0
LINE
  5
61E
100
AcDbEntity
  8
LAY-1
  6
CONTINUOUS
 62
     1
100
AcDbLine
 10
58.968452
 20
255.673389
 30
0.0
 11
58.968452
 21
254.940756
 31
0.0
  0
LINE
  5
61F
100
AcDbEntity
  8
LAY-1
  6
CONTINUOUS
 62
     1
100
AcDbLine
 10
58.968452
 20
254.940756
 30
0.0
 11
58.722287
 21
254.817673
 31
0.0
  0
LINE
  5
620
100
AcDbEntity
  8
LAY-1
  6
CONTINUOUS
 62
     1
100
AcDbLine
 10
58.722287
 20
254.817673
 30
0.0
 11
59.859334
 21
254.817673
 31
0.0
  0
LINE
  5
621
100
AcDbEntity
  8
LAY-1
  6
CONTINUOUS
 62
     1
100
AcDbLine
 10
59.859334
 20
254.817673
 30
0.0
 11
59.578003
 21
254.940756
 31
0.0
  0
LINE
  5
622
100
AcDbEntity
  8
LAY-1
  6
CONTINUOUS
 62
     1
100
AcDbLine
 10
59.578003
 20
254.940756
 30
0.0
 11
59.578003
 21
255.673389
 31
0.0
  0
LINE
  5
623
100
AcDbEntity
  8
LAY-1
  6
CONTINUOUS
 62
     1
100
AcDbLine
 10
59.578003
 20
255.673389
 30
0.0
 11
59.859334
 21
255.673389
 31
0.0
  0
ELLIPSE
  5
624
100
AcDbEntity
  8
LAY-1
  6
CONTINUOUS
 62
     1
100
AcDbEllipse
 10
59.859334
 20
255.673389
 30
0.0
 11
-0.0532437351342957
 21
1.8102869945658777
 31
0.0
210
0.0
220
0.0
230
1.0
 40
0.912621
 41
0.5369857443297676
 42
3.109376019493407
  0
ARC
  5
625
100
AcDbEntity
  8
LAY-1
  6
CONTINUOUS
 62
     1
100
AcDbCircle
 10
59.859334
 20
255.673389
 30
0.0
 40
1.875001
100
AcDbArc
 50
118.368264
 51
270.0
  0
LINE
  5
626
100
AcDbEntity
  8
LAY-1
  6
CONTINUOUS
 62
     1
100
AcDbLine
 10
58.780897
 20
257.918178
 30
0.0
 11
58.968452
 21
257.323225
 31
0.0
  0
LINE
  5
627
100
AcDbEntity
  8
LAY-1
  6
CONTINUOUS
 62
     1
100
AcDbLine
 10
59.859334
 20
253.798388
 30
0.0
 11
59.642474
 21
253.616154
 31
0.0
  0
LINE
  5
628
100
AcDbEntity
  8
LAY-1
  6
CONTINUOUS
 62
     1
100
AcDbLine
 10
58.968452
 20
256.230191
 30
0.0
 11
58.898119
 21
256.230191
 31
0.0
  0
LINE
  5
629
100
AcDbEntity
  8
LAY-1
  6
CONTINUOUS
 62
     1
100
AcDbLine
 10
60.55094
 20
253.786125
 30
0.0
 11
60.55094
 21
253.932433
 31
0.0
  0
LINE
  5
62A
100
AcDbEntity
  8
LAY-1
  6
CONTINUOUS
 62
     1
100
AcDbLine
 10
60.55094
 20
254.031898
 30
0.0
 11
60.55094
 21
255.673389
 31
0.0
  0
ARC
  5
62B
100
AcDbEntity
  8
LAY-1
  6
CONTINUOUS
 62
     1
100
AcDbCircle
 10
59.859334
 20
255.673389
 30
0.0
 40
1.875001
100
AcDbArc
 50
291.645098
 51
101.419721
  0
ELLIPSE
  5
62C
100
AcDbEntity
  8
LAY-1
  6
CONTINUOUS
 62
     1
100
AcDbEllipse
 10
59.859334
 20
255.673389
 30
0.0
 11
-0.0532437351342957
 21
1.8102869945658777
 31
0.0
210
0.0
220
0.0
230
1.0
 40
0.912621
 41
3.5427715523045551
 42
0.1388139713137064
  0
LINE
  5
62D
100
AcDbEntity
  8
LAY-1
  6
CONTINUOUS
 62
     1
100
AcDbLine
 10
59.488093
 20
257.511271
 30
0.0
 11
58.780897
 21
257.918178
 31
0.0
  0
LINE
  5
62E
100
AcDbEntity
  8
LAY-1
  6
CONTINUOUS
 62
     1
100
AcDbLine
 10
58.968452
 20
256.230191
 30
0.0
 11
58.968452
 21
257.20403
 31
0.0
  0
ARC
  5
62F
100
AcDbEntity
  8
LAY-1
  6
CONTINUOUS
 62
     2
100
AcDbCircle
 10
69.109334
 20
255.673389
 30
0.0
 40
20.863266
100
AcDbArc
 50
278.844814
 51
79.660662
  0
CIRCLE
  5
630
100
AcDbEntity
  8
LAY-1
  6
CONTINUOUS
 62
     2
100
AcDbCircle
 10
69.109334
 20
255.548389
 30
0.0
 40
28.0
  0
ARC
  5
631
100
AcDbEntity
  8
LAY-1
  6
CONTINUOUS
 62
     2
100
AcDbCircle
 10
69.109334
 20
255.673389
 30
0.0
 40
20.863266
100
AcDbArc
 50
100.833445
 51
261.150742
  0
LINE
  5
632
100
AcDbEntity
  8
LAY-1
  6
CONTINUOUS
 62
     2
100
AcDbLine
 10
63.734334
 20
247.548389
 30
0.0
 11
63.734334
 21
245.548389
 31
0.0
  0
ARC
  5
633
100
AcDbEntity
  8
LAY-1
  6
CONTINUOUS
 62
     2
100
AcDbCircle
 10
73.984334
 20
247.673389
 30
0.0
 40
0.5
100
AcDbArc
 50
0.0
 51
90.0
  0
LINE
  5
634
100
AcDbEntity
  8
LAY-1
  6
CONTINUOUS
 62
     2
100
AcDbLine
 10
74.484334
 20
245.423389
 30
0.0
 11
74.484334
 21
247.673389
 31
0.0
  0
ARC
  5
635
100
AcDbEntity
  8
LAY-1
  6
CONTINUOUS
 62
     2
100
AcDbCircle
 10
73.984334
 20
245.423389
 30
0.0
 40
0.5
100
AcDbArc
 50
270.0
 51
0.0
  0
LINE
  5
636
100
AcDbEntity
  8
LAY-1
  6
CONTINUOUS
 62
     2
100
AcDbLine
 10
63.734334
 20
245.423389
 30
0.0
 11
63.734334
 21
247.673389
 31
0.0
  0
LINE
  5
637
100
AcDbEntity
  8
LAY-1
  6
CONTINUOUS
 62
     2
100
AcDbLine
 10
73.984334
 20
248.173389
 30
0.0
 11
64.234334
 21
248.173389
 31
0.0
  0
ARC
  5
638
100
AcDbEntity
  8
LAY-1
  6
CONTINUOUS
 62
     2
100
AcDbCircle
 10
64.234334
 20
247.673389
 30
0.0
 40
0.5
100
AcDbArc
 50
90.0
 51
180.0
  0
CIRCLE
  5
639
100
AcDbEntity
  8
LAY-1
  6
CONTINUOUS
 62
     2
100
AcDbCircle
 10
73.296834
 20
246.548389
 30
0.0
 40
0.25
  0
ARC
  5
63A
100
AcDbEntity
  8
LAY-1
  6
CONTINUOUS
 62
     2
100
AcDbCircle
 10
64.288129
 20
245.480002
 30
0.0
 40
0.556681
100
AcDbArc
 50
185.836941
 51
270.89598
  0
CIRCLE
  5
63B
100
AcDbEntity
  8
LAY-1
  6
CONTINUOUS
 62
     2
100
AcDbCircle
 10
64.921834
 20
246.548389
 30
0.0
 40
0.25
  0
LINE
  5
63C
100
AcDbEntity
  8
LAY-1
  6
CONTINUOUS
 62
     2
100
AcDbLine
 10
64.296834
 20
244.923389
 30
0.0
 11
73.984334
 21
244.923389
 31
0.0
  0
LINE
  5
63D
100
AcDbEntity
  8
LAY-1
  6
EXLTYPE3
 62
     1
100
AcDbLine
 10
73.296834
 20
247.423389
 30
0.0
 11
73.296834
 21
245.785889
 31
0.0
  0
LINE
  5
63E
100
AcDbEntity
  8
LAY-1
  6
EXLTYPE3
 62
     1
100
AcDbLine
 10
64.921834
 20
247.423389
 30
0.0
 11
64.921834
 21
245.785889
 31
0.0
  0
LINE
  5
63F
100
AcDbEntity
  8
LAY-1
  6
EXLTYPE3
 62
     1
100
AcDbLine
 10
73.984334
 20
246.548389
 30
0.0
 11
72.709334
 21
246.548389
 31
0.0
  0
LINE
  5
640
100
AcDbEntity
  8
LAY-1
  6
EXLTYPE3
 62
     1
100
AcDbLine
 10
65.459334
 20
246.548389
 30
0.0
 11
64.221834
 21
246.548389
 31
0.0
  0
ARC
  5
641
100
AcDbEntity
  8
LAY-1
  6
CONTINUOUS
 62
     2
100
AcDbCircle
 10
66.359334
 20
240.188362
 30
0.0
 40
0.5
100
AcDbArc
 50
352.664274
 51
40.722759
  0
ARC
  5
642
100
AcDbEntity
  8
LAY-1
  6
CONTINUOUS
 62
     2
100
AcDbCircle
 10
71.859334
 20
240.188362
 30
0.0
 40
0.5
100
AcDbArc
 50
139.277241
 51
187.335726
  0
ARC
  5
643
100
AcDbEntity
  8
LAY-1
  6
CONTINUOUS
 62
     2
100
AcDbCircle
 10
66.859334
 20
234.466282
 30
0.0
 40
0.5
100
AcDbArc
 50
135.0
 51
180.0
  0
LINE
  5
644
100
AcDbEntity
  8
LAY-1
  6
CONTINUOUS
 62
     2
100
AcDbLine
 10
66.50578
 20
234.819836
 30
0.0
 11
66.712887
 21
235.026942
 31
0.0
  0
ARC
  5
645
100
AcDbEntity
  8
LAY-1
  6
CONTINUOUS
 62
     2
100
AcDbCircle
 10
66.359334
 20
235.380496
 30
0.0
 40
0.5
100
AcDbArc
 50
315.0
 51
0.0
  0
LINE
  5
646
100
AcDbEntity
  8
LAY-1
  6
CONTINUOUS
 62
     2
100
AcDbLine
 10
66.359334
 20
230.673389
 30
0.0
 11
66.359334
 21
234.466282
 31
0.0
  0
ARC
  5
647
100
AcDbEntity
  8
LAY-1
  6
CONTINUOUS
 62
     2
100
AcDbCircle
 10
66.859334
 20
230.673389
 30
0.0
 40
0.5
100
AcDbArc
 50
180.0
 51
270.0
  0
LINE
  5
648
100
AcDbEntity
  8
LAY-1
  6
CONTINUOUS
 62
     2
100
AcDbLine
 10
69.109334
 20
230.173389
 30
0.0
 11
66.859334
 21
230.173389
 31
0.0
  0
ARC
  5
649
100
AcDbEntity
  8
LAY-1
  6
CONTINUOUS
 62
     2
100
AcDbCircle
 10
71.359334
 20
234.466282
 30
0.0
 40
0.5
100
AcDbArc
 50
0.0
 51
45.0
  0
LINE
  5
64A
100
AcDbEntity
  8
LAY-1
  6
CONTINUOUS
 62
     2
100
AcDbLine
 10
71.712887
 20
234.819836
 30
0.0
 11
71.50578
 21
235.026942
 31
0.0
  0
ARC
  5
64B
100
AcDbEntity
  8
LAY-1
  6
CONTINUOUS
 62
     2
100
AcDbCircle
 10
71.859334
 20
235.380496
 30
0.0
 40
0.5
100
AcDbArc
 50
180.0
 51
225.0
  0
LINE
  5
64C
100
AcDbEntity
  8
LAY-1
  6
CONTINUOUS
 62
     2
100
AcDbLine
 10
71.859334
 20
230.673389
 30
0.0
 11
71.859334
 21
234.466282
 31
0.0
  0
ARC
  5
64D
100
AcDbEntity
  8
LAY-1
  6
CONTINUOUS
 62
     2
100
AcDbCircle
 10
71.359334
 20
230.673389
 30
0.0
 40
0.5
100
AcDbArc
 50
270.0
 51
0.0
  0
LINE
  5
64E
100
AcDbEntity
  8
LAY-1
  6
CONTINUOUS
 62
     2
100
AcDbLine
 10
69.109334
 20
230.173389
 30
0.0
 11
71.359334
 21
230.173389
 31
0.0
  0
LINE
  5
64F
100
AcDbEntity
  8
LAY-1
  6
CONTINUOUS
 62
     2
100
AcDbLine
 10
66.809334
 20
234.623389
 30
0.0
 11
71.509334
 21
234.623389
 31
0.0
  0
LINE
  5
650
100
AcDbEntity
  8
LAY-1
  6
CONTINUOUS
 62
     2
100
AcDbLine
 10
67.184334
 20
235.198389
 30
0.0
 11
71.009334
 21
235.198389
 31
0.0
  0
LINE
  5
651
100
AcDbEntity
  8
LAY-1
  6
CONTINUOUS
 62
     2
100
AcDbLine
 10
71.359334
 20
240.188362
 30
0.0
 11
71.359334
 21
235.380496
 31
0.0
  0
LINE
  5
652
100
AcDbEntity
  8
LAY-1
  6
CONTINUOUS
 62
     2
100
AcDbLine
 10
66.859334
 20
240.188362
 30
0.0
 11
66.859334
 21
235.380496
 31
0.0
  0
LINE
  5
653
100
AcDbEntity
  8
LAY-1
  6
CONTINUOUS
 62
     2
100
AcDbLine
 10
62.2612
 20
278.412421
 30
0.0
 11
61.211724
 21
280.946081
 31
0.0
  0
LINE
  5
654
100
AcDbEntity
  8
LAY-1
  6
CONTINUOUS
 62
     2
100
AcDbLine
 10
61.211724
 20
280.946081
 30
0.0
 11
58.492772
 21
281.304037
 31
0.0
  0
LINE
  5
655
100
AcDbEntity
  8
LAY-1
  6
CONTINUOUS
 62
     2
100
AcDbLine
 10
58.492772
 20
281.304037
 30
0.0
 11
56.823296
 21
279.128334
 31
0.0
  0
LINE
  5
656
100
AcDbEntity
  8
LAY-1
  6
CONTINUOUS
 62
     2
100
AcDbLine
 10
56.823296
 20
279.128334
 30
0.0
 11
57.872772
 21
276.594674
 31
0.0
  0
LINE
  5
657
100
AcDbEntity
  8
LAY-1
  6
CONTINUOUS
 62
     2
100
AcDbLine
 10
57.872772
 20
276.594674
 30
0.0
 11
60.591724
 21
276.236717
 31
0.0
  0
LINE
  5
658
100
AcDbEntity
  8
LAY-1
  6
CONTINUOUS
 62
     2
100
AcDbLine
 10
60.591724
 20
276.236717
 30
0.0
 11
62.2612
 21
278.412421
 31
0.0
  0
LINE
  5
659
100
AcDbEntity
  8
LAY-1
  6
CONTINUOUS
 62
     2
100
AcDbLine
 10
48.188049
 20
266.909951
 30
0.0
 11
45.654389
 21
267.959427
 31
0.0
  0
LINE
  5
65A
100
AcDbEntity
  8
LAY-1
  6
CONTINUOUS
 62
     2
100
AcDbLine
 10
45.654389
 20
267.959427
 30
0.0
 11
43.478685
 21
266.289951
 31
0.0
  0
LINE
  5
65B
100
AcDbEntity
  8
LAY-1
  6
CONTINUOUS
 62
     2
100
AcDbLine
 10
43.478685
 20
266.289951
 30
0.0
 11
43.836642
 21
263.570999
 31
0.0
  0
LINE
  5
65C
100
AcDbEntity
  8
LAY-1
  6
CONTINUOUS
 62
     2
100
AcDbLine
 10
43.836642
 20
263.570999
 30
0.0
 11
46.370302
 21
262.521523
 31
0.0
  0
LINE
  5
65D
100
AcDbEntity
  8
LAY-1
  6
CONTINUOUS
 62
     2
100
AcDbLine
 10
46.370302
 20
262.521523
 30
0.0
 11
48.546005
 21
264.190999
 31
0.0
  0
LINE
  5
65E
100
AcDbEntity
  8
LAY-1
  6
CONTINUOUS
 62
     2
100
AcDbLine
 10
48.546005
 20
264.190999
 30
0.0
 11
48.188049
 21
266.909951
 31
0.0
  0
LINE
  5
65F
100
AcDbEntity
  8
LAY-1
  6
CONTINUOUS
 62
     2
100
AcDbLine
 10
75.957468
 20
278.412421
 30
0.0
 11
77.006944
 21
280.946081
 31
0.0
  0
LINE
  5
660
100
AcDbEntity
  8
LAY-1
  6
CONTINUOUS
 62
     2
100
AcDbLine
 10
77.006944
 20
280.946081
 30
0.0
 11
79.725896
 21
281.304037
 31
0.0
  0
LINE
  5
661
100
AcDbEntity
  8
LAY-1
  6
CONTINUOUS
 62
     2
100
AcDbLine
 10
79.725896
 20
281.304037
 30
0.0
 11
81.395372
 21
279.128334
 31
0.0
  0
LINE
  5
662
100
AcDbEntity
  8
LAY-1
  6
CONTINUOUS
 62
     2
100
AcDbLine
 10
81.395372
 20
279.128334
 30
0.0
 11
80.345895
 21
276.594674
 31
0.0
  0
LINE
  5
663
100
AcDbEntity
  8
LAY-1
  6
CONTINUOUS
 62
     2
100
AcDbLine
 10
80.345895
 20
276.594674
 30
0.0
 11
77.626943
 21
276.236717
 31
0.0
  0
LINE
  5
664
100
AcDbEntity
  8
LAY-1
  6
CONTINUOUS
 62
     2
100
AcDbLine
 10
77.626943
 20
276.236717
 30
0.0
 11
75.957468
 21
278.412421
 31
0.0
  0
LINE
  5
665
100
AcDbEntity
  8
LAY-1
  6
CONTINUOUS
 62
     2
100
AcDbLine
 10
90.030619
 20
266.909951
 30
0.0
 11
92.564279
 21
267.959427
 31
0.0
  0
LINE
  5
666
100
AcDbEntity
  8
LAY-1
  6
CONTINUOUS
 62
     2
100
AcDbLine
 10
92.564279
 20
267.959427
 30
0.0
 11
94.739982
 21
266.289951
 31
0.0
  0
LINE
  5
667
100
AcDbEntity
  8
LAY-1
  6
CONTINUOUS
 62
     2
100
AcDbLine
 10
94.739982
 20
266.289951
 30
0.0
 11
94.382025
 21
263.570999
 31
0.0
  0
LINE
  5
668
100
AcDbEntity
  8
LAY-1
  6
CONTINUOUS
 62
     2
100
AcDbLine
 10
94.382025
 20
263.570999
 30
0.0
 11
91.848365
 21
262.521523
 31
0.0
  0
LINE
  5
669
100
AcDbEntity
  8
LAY-1
  6
CONTINUOUS
 62
     2
100
AcDbLine
 10
91.848365
 20
262.521523
 30
0.0
 11
89.672662
 21
264.190999
 31
0.0
  0
LINE
  5
66A
100
AcDbEntity
  8
LAY-1
  6
CONTINUOUS
 62
     2
100
AcDbLine
 10
89.672662
 20
264.190999
 30
0.0
 11
90.030619
 21
266.909951
 31
0.0
  0
LINE
  5
66B
100
AcDbEntity
  8
LAY-1
  6
CONTINUOUS
 62
     2
100
AcDbLine
 10
75.957468
 20
232.934358
 30
0.0
 11
77.006944
 21
230.400698
 31
0.0
  0
LINE
  5
66C
100
AcDbEntity
  8
LAY-1
  6
CONTINUOUS
 62
     2
100
AcDbLine
 10
77.006944
 20
230.400698
 30
0.0
 11
79.725896
 21
230.042741
 31
0.0
  0
LINE
  5
66D
100
AcDbEntity
  8
LAY-1
  6
CONTINUOUS
 62
     2
100
AcDbLine
 10
79.725896
 20
230.042741
 30
0.0
 11
81.395372
 21
232.218444
 31
0.0
  0
LINE
  5
66E
100
AcDbEntity
  8
LAY-1
  6
CONTINUOUS
 62
     2
100
AcDbLine
 10
81.395372
 20
232.218444
 30
0.0
 11
80.345895
 21
234.752104
 31
0.0
  0
LINE
  5
66F
100
AcDbEntity
  8
LAY-1
  6
CONTINUOUS
 62
     2
100
AcDbLine
 10
80.345895
 20
234.752104
 30
0.0
 11
77.626943
 21
235.110061
 31
0.0
  0
LINE
  5
670
100
AcDbEntity
  8
LAY-1
  6
CONTINUOUS
 62
     2
100
AcDbLine
 10
77.626943
 20
235.110061
 30
0.0
 11
75.957468
 21
232.934358
 31
0.0
  0
LINE
  5
671
100
AcDbEntity
  8
LAY-1
  6
CONTINUOUS
 62
     2
100
AcDbLine
 10
90.030619
 20
244.436828
 30
0.0
 11
92.564279
 21
243.387351
 31
0.0
  0
LINE
  5
672
100
AcDbEntity
  8
LAY-1
  6
CONTINUOUS
 62
     2
100
AcDbLine
 10
92.564279
 20
243.387351
 30
0.0
 11
94.739982
 21
245.056827
 31
0.0
  0
LINE
  5
673
100
AcDbEntity
  8
LAY-1
  6
CONTINUOUS
 62
     2
100
AcDbLine
 10
94.739982
 20
245.056827
 30
0.0
 11
94.382025
 21
247.775779
 31
0.0
  0
LINE
  5
674
100
AcDbEntity
  8
LAY-1
  6
CONTINUOUS
 62
     2
100
AcDbLine
 10
94.382025
 20
247.775779
 30
0.0
 11
91.848365
 21
248.825255
 31
0.0
  0
LINE
  5
675
100
AcDbEntity
  8
LAY-1
  6
CONTINUOUS
 62
     2
100
AcDbLine
 10
91.848365
 20
248.825255
 30
0.0
 11
89.672662
 21
247.15578
 31
0.0
  0
LINE
  5
676
100
AcDbEntity
  8
LAY-1
  6
CONTINUOUS
 62
     2
100
AcDbLine
 10
89.672662
 20
247.15578
 30
0.0
 11
90.030619
 21
244.436828
 31
0.0
  0
LINE
  5
677
100
AcDbEntity
  8
LAY-1
  6
CONTINUOUS
 62
     2
100
AcDbLine
 10
62.2612
 20
232.934358
 30
0.0
 11
61.211724
 21
230.400698
 31
0.0
  0
LINE
  5
678
100
AcDbEntity
  8
LAY-1
  6
CONTINUOUS
 62
     2
100
AcDbLine
 10
61.211724
 20
230.400698
 30
0.0
 11
58.492772
 21
230.042741
 31
0.0
  0
LINE
  5
679
100
AcDbEntity
  8
LAY-1
  6
CONTINUOUS
 62
     2
100
AcDbLine
 10
58.492772
 20
230.042741
 30
0.0
 11
56.823296
 21
232.218444
 31
0.0
  0
LINE
  5
67A
100
AcDbEntity
  8
LAY-1
  6
CONTINUOUS
 62
     2
100
AcDbLine
 10
56.823296
 20
232.218444
 30
0.0
 11
57.872772
 21
234.752104
 31
0.0
  0
LINE
  5
67B
100
AcDbEntity
  8
LAY-1
  6
CONTINUOUS
 62
     2
100
AcDbLine
 10
57.872772
 20
234.752104
 30
0.0
 11
60.591724
 21
235.110061
 31
0.0
  0
LINE
  5
67C
100
AcDbEntity
  8
LAY-1
  6
CONTINUOUS
 62
     2
100
AcDbLine
 10
60.591724
 20
235.110061
 30
0.0
 11
62.2612
 21
232.934358
 31
0.0
  0
LINE
  5
67D
100
AcDbEntity
  8
LAY-1
  6
CONTINUOUS
 62
     2
100
AcDbLine
 10
48.188049
 20
244.436828
 30
0.0
 11
45.654389
 21
243.387351
 31
0.0
  0
LINE
  5
67E
100
AcDbEntity
  8
LAY-1
  6
CONTINUOUS
 62
     2
100
AcDbLine
 10
45.654389
 20
243.387351
 30
0.0
 11
43.478685
 21
245.056827
 31
0.0
  0
LINE
  5
67F
100
AcDbEntity
  8
LAY-1
  6
CONTINUOUS
 62
     2
100
AcDbLine
 10
43.478685
 20
245.056827
 30
0.0
 11
43.836642
 21
247.775779
 31
0.0
  0
LINE
  5
680
100
AcDbEntity
  8
LAY-1
  6
CONTINUOUS
 62
     2
100
AcDbLine
 10
43.836642
 20
247.775779
 30
0.0
 11
46.370302
 21
248.825255
 31
0.0
  0
LINE
  5
681
100
AcDbEntity
  8
LAY-1
  6
CONTINUOUS
 62
     2
100
AcDbLine
 10
46.370302
 20
248.825255
 30
0.0
 11
48.546005
 21
247.15578
 31
0.0
  0
LINE
  5
682
100
AcDbEntity
  8
LAY-1
  6
CONTINUOUS
 62
     2
100
AcDbLine
 10
48.546005
 20
247.15578
 30
0.0
 11
48.188049
 21
244.436828
 31
0.0
  0
CIRCLE
  5
683
100
AcDbEntity
  8
LAY-1
  6
CONTINUOUS
 62
     2
100
AcDbCircle
 10
78.67642
 20
278.770377
 30
0.0
 40
2.375
  0
CIRCLE
  5
684
100
AcDbEntity
  8
LAY-1
  6
CONTINUOUS
 62
     2
100
AcDbCircle
 10
59.542248
 20
278.770377
 30
0.0
 40
2.375
  0
CIRCLE
  5
685
100
AcDbEntity
  8
LAY-1
  6
CONTINUOUS
 62
     2
100
AcDbCircle
 10
46.012345
 20
265.240475
 30
0.0
 40
2.375
  0
CIRCLE
  5
686
100
AcDbEntity
  8
LAY-1
  6
CONTINUOUS
 62
     2
100
AcDbCircle
 10
46.012345
 20
246.106303
 30
0.0
 40
2.375
  0
CIRCLE
  5
687
100
AcDbEntity
  8
LAY-1
  6
CONTINUOUS
 62
     2
100
AcDbCircle
 10
59.542248
 20
232.576401
 30
0.0
 40
2.375
  0
CIRCLE
  5
688
100
AcDbEntity
  8
LAY-1
  6
CONTINUOUS
 62
     2
100
AcDbCircle
 10
78.67642
 20
232.576401
 30
0.0
 40
2.375
  0
CIRCLE
  5
689
100
AcDbEntity
  8
LAY-1
  6
CONTINUOUS
 62
     2
100
AcDbCircle
 10
92.206322
 20
246.106303
 30
0.0
 40
2.375
  0
CIRCLE
  5
68A
100
AcDbEntity
  8
LAY-1
  6
CONTINUOUS
 62
     2
100
AcDbCircle
 10
69.109334
 20
255.673389
 30
0.0
 40
3.25
  0
LINE
  5
68B
100
AcDbEntity
  8
LAY-1
  6
CONTINUOUS
 62
     2
100
AcDbLine
 10
72.359334
 20
253.797001
 30
0.0
 11
72.359334
 21
257.549777
 31
0.0
  0
LINE
  5
68C
100
AcDbEntity
  8
LAY-1
  6
CONTINUOUS
 62
     2
100
AcDbLine
 10
72.359334
 20
257.549777
 30
0.0
 11
69.109334
 21
259.426166
 31
0.0
  0
LINE
  5
68D
100
AcDbEntity
  8
LAY-1
  6
CONTINUOUS
 62
     2
100
AcDbLine
 10
69.109334
 20
259.426166
 30
0.0
 11
65.859334
 21
257.549777
 31
0.0
  0
LINE
  5
68E
100
AcDbEntity
  8
LAY-1
  6
CONTINUOUS
 62
     2
100
AcDbLine
 10
65.859334
 20
257.549777
 30
0.0
 11
65.859334
 21
253.797001
 31
0.0
  0
LINE
  5
68F
100
AcDbEntity
  8
LAY-1
  6
CONTINUOUS
 62
     2
100
AcDbLine
 10
65.859334
 20
253.797001
 30
0.0
 11
69.109334
 21
251.920612
 31
0.0
  0
LINE
  5
690
100
AcDbEntity
  8
LAY-1
  6
CONTINUOUS
 62
     2
100
AcDbLine
 10
69.109334
 20
251.920612
 30
0.0
 11
72.359334
 21
253.797001
 31
0.0
  0
TEXT
  5
691
100
AcDbEntity
  8
LAY-1
  6
CONTINUOUS
 62
     3
100
AcDbText
 10
353.65
 20
76.6
 30
0.0
 40
3.6
  1
ＡＤＣ１２
 41
0.583333
  7
EXCADSTD
 72
     5
 11
366.15
 21
76.6
 31
0.0
100
AcDbText
  0
LINE
  5
692
100
AcDbEntity
  8
LAY-1
  6
CONTINUOUS
 62
     7
100
AcDbLine
 10
184.1
 20
202.975074
 30
0.0
 11
184.1
 21
221.475074
 31
0.0
  0
LINE
  5
693
100
AcDbEntity
  8
LAY-1
  6
CONTINUOUS
 62
     1
100
AcDbLine
 10
183.6
 20
202.975074
 30
0.0
 11
183.6
 21
217.964278
 31
0.0
  0
LINE
  5
694
100
AcDbEntity
  8
LAY-1
  6
CONTINUOUS
 62
     1
100
AcDbLine
 10
176.6
 20
217.964278
 30
0.0
 11
176.6
 21
202.975074
 31
0.0
  0
LINE
  5
695
100
AcDbEntity
  8
LAY-1
  6
CONTINUOUS
 62
     7
100
AcDbLine
 10
176.1
 20
221.475074
 30
0.0
 11
176.1
 21
202.975074
 31
0.0
  0
LINE
  5
696
100
AcDbEntity
  8
LAY-1
  6
CONTINUOUS
 62
     7
100
AcDbLine
 10
186.1
 20
202.975074
 30
0.0
 11
187.025
 21
202.441025
 31
0.0
  0
LINE
  5
697
100
AcDbEntity
  8
LAY-1
  6
CONTINUOUS
 62
     7
100
AcDbLine
 10
180.1
 20
202.975074
 30
0.0
 11
186.1
 21
202.975074
 31
0.0
  0
ARC
  5
698
100
AcDbEntity
  8
LAY-1
  6
CONTINUOUS
 62
     7
100
AcDbCircle
 10
185.294551
 20
199.90451
 30
0.0
 40
3.070564
100
AcDbArc
 50
55.697591
 51
124.302409
  0
LINE
  5
699
100
AcDbEntity
  8
LAY-1
  6
CONTINUOUS
 62
     7
100
AcDbLine
 10
174.1
 20
202.975074
 30
0.0
 11
173.175
 21
202.441025
 31
0.0
  0
LINE
  5
69A
100
AcDbEntity
  8
LAY-1
  6
CONTINUOUS
 62
     7
100
AcDbLine
 10
180.1
 20
202.975074
 30
0.0
 11
174.1
 21
202.975074
 31
0.0
  0
ARC
  5
69B
100
AcDbEntity
  8
LAY-1
  6
CONTINUOUS
 62
     7
100
AcDbCircle
 10
174.905449
 20
199.90451
 30
0.0
 40
3.070564
100
AcDbArc
 50
55.697591
 51
124.302409
  0
ARC
  5
69C
100
AcDbEntity
  8
LAY-1
  6
CONTINUOUS
 62
     7
100
AcDbCircle
 10
180.1
 20
191.473125
 30
0.0
 40
11.501949
100
AcDbArc
 50
72.471798
 51
107.528202
  0
LINE
  5
69D
100
AcDbEntity
  8
LAY-1
  6
CONTINUOUS
 62
     7
100
AcDbLine
 10
180.1
 20
196.475074
 30
0.0
 11
187.025
 21
196.475074
 31
0.0
  0
LINE
  5
69E
100
AcDbEntity
  8
LAY-1
  6
CONTINUOUS
 62
     7
100
AcDbLine
 10
187.025
 20
196.475074
 30
0.0
 11
187.025
 21
202.441025
 31
0.0
  0
LINE
  5
69F
100
AcDbEntity
  8
LAY-1
  6
CONTINUOUS
 62
     7
100
AcDbLine
 10
183.564102
 20
202.441025
 30
0.0
 11
183.564102
 21
196.475074
 31
0.0
  0
LINE
  5
6A0
100
AcDbEntity
  8
LAY-1
  6
CONTINUOUS
 62
     7
100
AcDbLine
 10
180.1
 20
196.475074
 30
0.0
 11
173.175
 21
196.475074
 31
0.0
  0
LINE
  5
6A1
100
AcDbEntity
  8
LAY-1
  6
CONTINUOUS
 62
     7
100
AcDbLine
 10
173.175
 20
196.475074
 30
0.0
 11
173.175
 21
202.441025
 31
0.0
  0
LINE
  5
6A2
100
AcDbEntity
  8
LAY-1
  6
CONTINUOUS
 62
     7
100
AcDbLine
 10
176.635898
 20
202.441025
 30
0.0
 11
176.635898
 21
196.475074
 31
0.0
  0
TEXT
  5
6A3
100
AcDbEntity
  8
LAY-1
  6
CONTINUOUS
 62
     3
100
AcDbText
 10
346.25
 20
166.5
 30
0.0
 40
3.6
  1
１
 41
0.583333
  7
EXCADSTD
 72
     5
 11
348.25
 21
166.5
 31
0.0
100
AcDbText
  0
TEXT
  5
6A4
100
AcDbEntity
  8
LAY-1
  6
CONTINUOUS
 62
     3
100
AcDbText
 10
303.55
 20
166.7
 30
0.0
 40
3.6
  1
六角ナット
 41
0.84
  7
EXCADSTD
 72
     5
 11
321.55
 21
166.7
 31
0.0
100
AcDbText
  0
TEXT
  5
6A5
100
AcDbEntity
  8
LAY-1
  6
CONTINUOUS
 62
     3
100
AcDbText
 10
353.65
 20
166.6
 30
0.0
 40
3.6
  1
ＳＳ４００
 41
0.583333
  7
EXCADSTD
 72
     5
 11
366.15
 21
166.6
 31
0.0
100
AcDbText
  0
TEXT
  5
6A6
100
AcDbEntity
  8
LAY-1
  6
CONTINUOUS
 62
     3
100
AcDbText
 10
373.65
 20
201.6
 30
0.0
 40
3.6
  1
Ｐ１０Ａ
 41
0.583333
  7
EXCADSTD
 72
     5
 11
383.65
 21
201.6
 31
0.0
100
AcDbText
  0
TEXT
  5
6A7
100
AcDbEntity
  8
LAY-1
  6
CONTINUOUS
 62
     3
100
AcDbText
 10
373.65
 20
166.6
 30
0.0
 40
3.6
  1
１種 Ｍ１６
 41
0.551698
  7
EXCADSTD
 72
     5
 11
387.4
 21
166.6
 31
0.0
100
AcDbText
  0
TEXT
  5
6A8
100
AcDbEntity
  8
LAY-1
  6
CONTINUOUS
 62
     3
100
AcDbText
 10
373.65
 20
156.6
 30
0.0
 40
3.6
  1
Ｍ１２×５０
 41
0.583333
  7
EXCADSTD
 72
     5
 11
388.65
 21
156.6
 31
0.0
100
AcDbText
  0
TEXT
  5
6A9
100
AcDbEntity
  8
LAY-1
  6
CONTINUOUS
 62
     3
100
AcDbText
 10
373.65
 20
221.6
 30
0.0
 40
3.6
  1
３×６（認定品に限る）
 41
0.583333
  7
EXCADSTD
 72
     5
 11
401.15
 21
221.6
 31
0.0
100
AcDbText
  0
TEXT
  5
6AA
100
AcDbEntity
  8
LAY-1
  6
CONTINUOUS
 62
     3
100
AcDbText
 10
373.65
 20
226.6
 30
0.0
 40
3.6
  1
（認定品に限る）
 41
0.583333
  7
EXCADSTD
 72
     5
 11
393.65
 21
226.6
 31
0.0
100
AcDbText
  0
TEXT
  5
6AB
100
AcDbEntity
  8
LAY-1
  6
CONTINUOUS
 62
     3
100
AcDbText
 10
373.65
 20
231.6
 30
0.0
 40
3.6
  1
（同梱品）
 41
0.84
  7
EXCADSTD
 72
     5
 11
391.65
 21
231.6
 31
0.0
100
AcDbText
  0
TEXT
  5
6AC
100
AcDbEntity
  8
LAY-1
  6
CONTINUOUS
 62
     3
100
AcDbText
 10
373.65
 20
236.6
 30
0.0
 40
3.6
  1
（同梱品）
 41
0.84
  7
EXCADSTD
 72
     5
 11
391.65
 21
236.6
 31
0.0
100
AcDbText
  0
TEXT
  5
6AD
100
AcDbEntity
  8
LAY-1
  6
CONTINUOUS
 62
     3
100
AcDbText
 10
360.95
 20
35.8
 30
0.0
 40
3.6
  1
ＧＭＦ－２００－Ｊ
 41
0.747315
  7
EXCADSTD
 72
     5
 11
389.775
 21
35.8
 31
0.0
100
AcDbText
  0
LINE
  5
6AE
100
AcDbEntity
  8
LAY-2
  6
CONTINUOUS
 62
     7
100
AcDbLine
 10
183.1
 20
113.883975
 30
0.0
 11
212.6
 21
113.883975
 31
0.0
  0
ARC
  5
6AF
100
AcDbEntity
  8
LAY-2
  6
CONTINUOUS
 62
     7
100
AcDbCircle
 10
217.010434
 20
111.317833
 30
0.0
 40
5.0
100
AcDbArc
 50
125.481562
 51
126.019303
  0
ARC
  5
6B0
100
AcDbEntity
  8
LAY-2
  6
CONTINUOUS
 62
     7
100
AcDbCircle
 10
212.6
 20
117.383975
 30
0.0
 40
2.5
100
AcDbArc
 50
270.0
 51
0.0
  0
LINE
  5
6B1
100
AcDbEntity
  8
LAY-2
  6
CONTINUOUS
 62
     7
100
AcDbLine
 10
177.1
 20
113.883975
 30
0.0
 11
147.6
 21
113.883975
 31
0.0
  0
ARC
  5
6B2
100
AcDbEntity
  8
LAY-2
  6
CONTINUOUS
 62
     7
100
AcDbCircle
 10
143.189566
 20
111.317833
 30
0.0
 40
5.0
100
AcDbArc
 50
53.980697
 51
54.518438
  0
LINE
  5
6B3
100
AcDbEntity
  8
LAY-2
  6
EXLTYPE3
 62
     1
100
AcDbLine
 10
69.109334
 20
285.334563
 30
0.0
 11
69.109334
 21
225.852219
 31
0.0
  0
LINE
  5
6B4
100
AcDbEntity
  8
LAY-2
  6
EXLTYPE3
 62
     1
100
AcDbLine
 10
29.109334
 20
255.673389
 30
0.0
 11
109.109334
 21
255.673389
 31
0.0
  0
LINE
  5
6B5
100
AcDbEntity
  8
LAY-2
  6
EXLTYPE3
 62
     1
100
AcDbLine
 10
32.234334
 20
266.923389
 30
0.0
 11
38.734334
 21
266.923389
 31
0.0
  0
LINE
  5
6B6
100
AcDbEntity
  8
LAY-2
  6
EXLTYPE3
 62
     1
100
AcDbLine
 10
98.856234
 20
268.798389
 30
0.0
 11
106.344375
 21
268.798389
 31
0.0
  0
LINE
  5
6B7
100
AcDbEntity
  8
LAY-2
  6
EXLTYPE3
 62
     1
100
AcDbLine
 10
98.856234
 20
242.548389
 30
0.0
 11
106.344375
 21
242.548389
 31
0.0
  0
LINE
  5
6B8
100
AcDbEntity
  8
LAY-2
  6
EXLTYPE3
 62
     1
100
AcDbLine
 10
32.234334
 20
244.423389
 30
0.0
 11
38.734334
 21
244.423389
 31
0.0
  0
LINE
  5
6B9
100
AcDbEntity
  8
LAY-2
  6
EXLTYPE3
 62
     1
100
AcDbLine
 10
239.593801
 20
94.233975
 30
0.0
 11
254.570082
 21
94.233975
 31
0.0
  0
LINE
  5
6BA
100
AcDbEntity
  8
LAY-2
  6
EXLTYPE3
 62
     1
100
AcDbLine
 10
106.654988
 20
67.983975
 30
0.0
 11
252.999143
 21
67.983975
 31
0.0
  0
LINE
  5
6BB
100
AcDbEntity
  8
LAY-2
  6
EXLTYPE3
 62
     1
100
AcDbLine
 10
239.593801
 20
41.733975
 30
0.0
 11
254.570082
 21
41.733975
 31
0.0
  0
LINE
  5
6BC
100
AcDbEntity
  8
LAY-2
  6
EXLTYPE3
 62
     1
100
AcDbLine
 10
106.35
 20
45.483975
 30
0.0
 11
119.35
 21
45.483975
 31
0.0
  0
LINE
  5
6BD
100
AcDbEntity
  8
LAY-2
  6
EXLTYPE3
 62
     1
100
AcDbLine
 10
106.35
 20
90.483975
 30
0.0
 11
119.35
 21
90.483975
 31
0.0
  0
LINE
  5
6BE
100
AcDbEntity
  8
LAY-2
  6
EXLTYPE3
 62
     1
100
AcDbLine
 10
130.1
 20
116.215917
 30
0.0
 11
130.1
 21
102.057776
 31
0.0
  0
LINE
  5
6BF
100
AcDbEntity
  8
LAY-2
  6
EXLTYPE3
 62
     1
100
AcDbLine
 10
130.1
 20
122.289554
 30
0.0
 11
130.1
 21
112.785065
 31
0.0
  0
LINE
  5
6C0
100
AcDbEntity
  8
LAY-2
  6
EXLTYPE3
 62
     1
100
AcDbLine
 10
136.35
 20
113.175754
 30
0.0
 11
136.35
 21
112.495754
 31
0.0
  0
LINE
  5
6C1
100
AcDbEntity
  8
LAY-2
  6
EXLTYPE3
 62
     1
100
AcDbLine
 10
136.35
 20
113.859312
 30
0.0
 11
136.35
 21
114.381369
 31
0.0
  0
LINE
  5
6C2
100
AcDbEntity
  8
LAY-2
  6
EXLTYPE3
 62
     1
100
AcDbLine
 10
158.725
 20
162.975074
 30
0.0
 11
158.725
 21
116.718243
 31
0.0
  0
LINE
  5
6C3
100
AcDbEntity
  8
LAY-2
  6
EXLTYPE3
 62
     1
100
AcDbLine
 10
166.1
 20
116.718243
 30
0.0
 11
166.1
 21
162.475074
 31
0.0
  0
LINE
  5
6C4
100
AcDbEntity
  8
LAY-2
  6
EXLTYPE3
 62
     1
100
AcDbLine
 10
194.1
 20
115.8
 30
0.0
 11
194.1
 21
162.475074
 31
0.0
  0
LINE
  5
6C5
100
AcDbEntity
  8
LAY-2
  6
EXLTYPE3
 62
     1
100
AcDbLine
 10
201.475
 20
162.975074
 30
0.0
 11
201.475
 21
115.9
 31
0.0
  0
LINE
  5
6C6
100
AcDbEntity
  8
LAY-2
  6
EXLTYPE3
 62
     1
100
AcDbLine
 10
230.1
 20
132.6
 30
0.0
 11
230.1
 21
99.3
 31
0.0
  0
LINE
  5
6C7
100
AcDbEntity
  8
LAY-2
  6
EXLTYPE3
 62
     1
100
AcDbLine
 10
223.85
 20
113.175754
 30
0.0
 11
223.85
 21
112.495754
 31
0.0
  0
LINE
  5
6C8
100
AcDbEntity
  8
LAY-2
  6
EXLTYPE3
 62
     1
100
AcDbLine
 10
223.85
 20
114.335807
 30
0.0
 11
223.85
 21
113.859312
 31
0.0
  0
LINE
  5
6C9
100
AcDbEntity
  8
LAY-2
  6
EXLTYPE3
 62
     1
100
AcDbLine
 10
186.1
 20
58.983975
 30
0.0
 11
186.1
 21
40.483975
 31
0.0
  0
LINE
  5
6CA
100
AcDbEntity
  8
LAY-2
  6
EXLTYPE3
 62
     1
100
AcDbLine
 10
174.1
 20
58.983975
 30
0.0
 11
174.1
 21
40.483975
 31
0.0
  0
LINE
  5
6CB
100
AcDbEntity
  8
LAY-2
  6
EXLTYPE3
 62
     1
100
AcDbLine
 10
180.1
 20
255.0
 30
0.0
 11
180.1
 21
31.0
 31
0.0
  0
LINE
  5
6CC
100
AcDbEntity
  8
LAY-3
  6
CONTINUOUS
 62
     1
100
AcDbLine
 10
106.654988
 20
67.983975
 30
0.0
 11
89.0
 21
67.983975
 31
0.0
  0
TEXT
  5
6CD
100
AcDbEntity
  8
LAY-3
  6
CONTINUOUS
 62
     3
100
AcDbText
 10
89.5
 20
126.229525
 30
0.0
 40
2.8
  1
約３２０(０.０７ＭＰａ 設定時)
 50
90.0
 41
0.774394
  7
EXCADSTD
 72
     5
 11
89.500001
 21
168.229524
 31
0.0
100
AcDbText
  0
LINE
  5
6CE
100
AcDbEntity
  8
LAY-3
  6
CONTINUOUS
 62
     1
100
AcDbLine
 10
90.000001
 20
226.475074
 30
0.0
 11
90.0
 21
67.983975
 31
0.0
  0
LINE
  5
6CF
100
AcDbEntity
  8
LAY-3
  6
CONTINUOUS
 62
     1
100
AcDbLine
 10
90.250001
 20
224.975074
 30
0.0
 11
90.000001
 21
226.475074
 31
0.0
  0
LINE
  5
6D0
100
AcDbEntity
  8
LAY-3
  6
CONTINUOUS
 62
     1
100
AcDbLine
 10
90.000001
 20
226.475074
 30
0.0
 11
89.750001
 21
224.975074
 31
0.0
  0
LINE
  5
6D1
100
AcDbEntity
  8
LAY-3
  6
CONTINUOUS
 62
     1
100
AcDbLine
 10
89.75
 20
69.483975
 30
0.0
 11
90.0
 21
67.983975
 31
0.0
  0
LINE
  5
6D2
100
AcDbEntity
  8
LAY-3
  6
CONTINUOUS
 62
     1
100
AcDbLine
 10
90.0
 20
67.983975
 30
0.0
 11
90.25
 21
69.483975
 31
0.0
  0
LINE
  5
6D3
100
AcDbEntity
  8
LAY-3
  6
CONTINUOUS
 62
     1
100
AcDbLine
 10
174.90545
 20
226.475074
 30
0.0
 11
89.000001
 21
226.475074
 31
0.0
  0
LINE
  5
6D4
100
AcDbEntity
  8
LAY-3
  6
CONTINUOUS
 62
     1
100
AcDbLine
 10
236.1
 20
120.975074
 30
0.0
 11
236.1
 21
237.5
 31
0.0
  0
LINE
  5
6D5
100
AcDbEntity
  8
LAY-3
  6
CONTINUOUS
 62
     1
100
AcDbLine
 10
124.1
 20
236.5
 30
0.0
 11
236.1
 21
236.5
 31
0.0
  0
LINE
  5
6D6
100
AcDbEntity
  8
LAY-3
  6
CONTINUOUS
 62
     1
100
AcDbLine
 10
125.6
 20
236.75
 30
0.0
 11
124.1
 21
236.5
 31
0.0
  0
LINE
  5
6D7
100
AcDbEntity
  8
LAY-3
  6
CONTINUOUS
 62
     1
100
AcDbLine
 10
124.1
 20
236.5
 30
0.0
 11
125.6
 21
236.25
 31
0.0
  0
LINE
  5
6D8
100
AcDbEntity
  8
LAY-3
  6
CONTINUOUS
 62
     1
100
AcDbLine
 10
234.6
 20
236.25
 30
0.0
 11
236.1
 21
236.5
 31
0.0
  0
LINE
  5
6D9
100
AcDbEntity
  8
LAY-3
  6
CONTINUOUS
 62
     1
100
AcDbLine
 10
236.1
 20
236.5
 30
0.0
 11
234.6
 21
236.75
 31
0.0
  0
LINE
  5
6DA
100
AcDbEntity
  8
LAY-3
  6
CONTINUOUS
 62
     1
100
AcDbLine
 10
124.1
 20
120.975074
 30
0.0
 11
124.1
 21
237.5
 31
0.0
  0
TEXT
  5
6DB
100
AcDbEntity
  8
LAY-3
  6
CONTINUOUS
 62
     3
100
AcDbText
 10
153.25
 20
237.45
 30
0.0
 40
2.8
  1
φ
 41
0.75
  7
EXCADSTD
 72
     5
 11
155.25
 21
237.45
 31
0.0
100
AcDbText
  0
TEXT
  5
6DC
100
AcDbEntity
  8
LAY-3
  6
CONTINUOUS
 62
     3
100
AcDbText
 10
155.75
 20
237.45
 30
0.0
 40
2.8
  1
２２４
 41
0.75
  7
EXCADSTD
 72
     5
 11
163.25
 21
237.45
 31
0.0
100
AcDbText
  0
LINE
  5
6DD
100
AcDbEntity
  8
LAY-3
  6
CONTINUOUS
 62
     1
100
AcDbLine
 10
108.85
 20
51.233975
 30
0.0
 11
108.85
 21
9.5
 31
0.0
  0
LINE
  5
6DE
100
AcDbEntity
  8
LAY-3
  6
CONTINUOUS
 62
     1
100
AcDbLine
 10
251.35
 20
32.983975
 30
0.0
 11
251.35
 21
9.5
 31
0.0
  0
LINE
  5
6DF
100
AcDbEntity
  8
LAY-3
  6
CONTINUOUS
 62
     1
100
AcDbLine
 10
108.85
 20
10.5
 30
0.0
 11
251.35
 21
10.5
 31
0.0
  0
LINE
  5
6E0
100
AcDbEntity
  8
LAY-3
  6
CONTINUOUS
 62
     1
100
AcDbLine
 10
110.35
 20
10.75
 30
0.0
 11
108.85
 21
10.5
 31
0.0
  0
LINE
  5
6E1
100
AcDbEntity
  8
LAY-3
  6
CONTINUOUS
 62
     1
100
AcDbLine
 10
108.85
 20
10.5
 30
0.0
 11
110.35
 21
10.25
 31
0.0
  0
LINE
  5
6E2
100
AcDbEntity
  8
LAY-3
  6
CONTINUOUS
 62
     1
100
AcDbLine
 10
249.85
 20
10.25
 30
0.0
 11
251.35
 21
10.5
 31
0.0
  0
LINE
  5
6E3
100
AcDbEntity
  8
LAY-3
  6
CONTINUOUS
 62
     1
100
AcDbLine
 10
251.35
 20
10.5
 30
0.0
 11
249.85
 21
10.75
 31
0.0
  0
TEXT
  5
6E4
100
AcDbEntity
  8
LAY-3
  6
CONTINUOUS
 62
     3
100
AcDbText
 10
174.225
 20
11.0
 30
0.0
 40
2.8
  1
２８５
 41
0.75
  7
EXCADSTD
 72
     5
 11
181.725
 21
11.0
 31
0.0
100
AcDbText
  0
TEXT
  5
6E5
100
AcDbEntity
  8
LAY-3
  6
CONTINUOUS
 62
     3
100
AcDbText
 10
181.725
 20
12.96
 30
0.0
 40
1.96
  1
＋
 41
0.75
  7
EXCADSTD
 72
     5
 11
183.125
 21
12.96
 31
0.0
100
AcDbText
  0
TEXT
  5
6E6
100
AcDbEntity
  8
LAY-3
  6
CONTINUOUS
 62
     3
100
AcDbText
 10
181.725
 20
11.0
 30
0.0
 40
1.96
  1
－
 41
0.75
  7
EXCADSTD
 72
     5
 11
183.125
 21
11.0
 31
0.0
100
AcDbText
  0
TEXT
  5
6E7
100
AcDbEntity
  8
LAY-3
  6
CONTINUOUS
 62
     3
100
AcDbText
 10
183.475
 20
11.0
 30
0.0
 40
2.8
  1
２
 41
0.75
  7
EXCADSTD
 72
     5
 11
185.475
 21
11.0
 31
0.0
100
AcDbText
  0
POLYLINE
  5
6E8
100
AcDbEntity
  8
LAY-3
  6
CONTINUOUS
 62
     1
100
AcDb2dPolyline
 66
     1
 10
0.0
 20
0.0
 30
0.0
 70
   128
  0
VERTEX
  5
6E9
100
AcDbEntity
  8
LAY-3
  6
CONTINUOUS
 62
     1
100
AcDbVertex
100
AcDb2dVertex
 10
113.0
 20
36.733975
 30
0.0
  0
VERTEX
  5
6EA
100
AcDbEntity
  8
LAY-3
  6
CONTINUOUS
 62
     1
100
AcDbVertex
100
AcDb2dVertex
 10
100.0
 20
26.0
 30
0.0
  0
VERTEX
  5
6EB
100
AcDbEntity
  8
LAY-3
  6
CONTINUOUS
 62
     1
100
AcDbVertex
100
AcDb2dVertex
 10
61.650001
 20
26.0
 30
0.0
  0
SEQEND
  5
6EC
100
AcDbEntity
  8
LAY-3
  6
CONTINUOUS
 62
     1
  0
LINE
  5
6ED
100
AcDbEntity
  8
LAY-3
  6
CONTINUOUS
 62
     1
100
AcDbLine
 10
112.002507
 20
35.586147
 30
0.0
 11
113.0
 21
36.733975
 31
0.0
  0
LINE
  5
6EE
100
AcDbEntity
  8
LAY-3
  6
CONTINUOUS
 62
     1
100
AcDbLine
 10
113.0
 20
36.733975
 30
0.0
 11
111.684157
 21
35.971703
 31
0.0
  0
TEXT
  5
6EF
100
AcDbEntity
  8
LAY-3
  6
CONTINUOUS
 62
     3
100
AcDbText
 10
61.650001
 20
26.0
 30
0.0
 40
2.8
  1
ＪＩＳ２０Ｋ ２５Ａフランジ
 41
0.82102
  7
EXCADSTD
 72
     5
 11
99.45
 21
26.0
 31
0.0
100
AcDbText
  0
TEXT
  5
6F0
100
AcDbEntity
  8
LAY-3
  6
CONTINUOUS
 62
     3
100
AcDbText
 10
253.350001
 20
26.95
 30
0.0
 40
2.8
  1
ＪＩＳ１０Ｋ ４０Ａフランジ
 41
0.82102
  7
EXCADSTD
 72
     5
 11
291.15
 21
26.95
 31
0.0
100
AcDbText
  0
POLYLINE
  5
6F1
100
AcDbEntity
  8
LAY-3
  6
CONTINUOUS
 62
     1
100
AcDb2dPolyline
 66
     1
 10
0.0
 20
0.0
 30
0.0
 70
   128
  0
VERTEX
  5
6F2
100
AcDbEntity
  8
LAY-3
  6
CONTINUOUS
 62
     1
100
AcDbVertex
100
AcDb2dVertex
 10
247.05
 20
32.983975
 30
0.0
  0
VERTEX
  5
6F3
100
AcDbEntity
  8
LAY-3
  6
CONTINUOUS
 62
     1
100
AcDbVertex
100
AcDb2dVertex
 10
253.1
 20
26.8
 30
0.0
  0
VERTEX
  5
6F4
100
AcDbEntity
  8
LAY-3
  6
CONTINUOUS
 62
     1
100
AcDbVertex
100
AcDb2dVertex
 10
291.0
 20
26.8
 30
0.0
  0
SEQEND
  5
6F5
100
AcDbEntity
  8
LAY-3
  6
CONTINUOUS
 62
     1
  0
LINE
  5
6F6
100
AcDbEntity
  8
LAY-3
  6
CONTINUOUS
 62
     1
100
AcDbLine
 10
248.277684
 20
32.086594
 30
0.0
 11
247.05
 21
32.983975
 31
0.0
  0
LINE
  5
6F7
100
AcDbEntity
  8
LAY-3
  6
CONTINUOUS
 62
     1
100
AcDbLine
 10
247.05
 20
32.983975
 30
0.0
 11
247.92028
 21
31.736933
 31
0.0
  0
CIRCLE
  5
6F8
100
AcDbEntity
  8
LAY-3
  6
CONTINUOUS
 62
     1
100
AcDbCircle
 10
120.0
 20
25.0
 30
0.0
 40
4.0
  0
TEXT
  5
6F9
100
AcDbEntity
  8
LAY-3
  6
CONTINUOUS
 62
     3
100
AcDbText
 10
117.971573
 20
22.171573
 30
0.0
 40
5.656854
  1
1
  7
EXCADSTD
 72
     5
 11
121.648528
 21
22.171573
 31
0.0
100
AcDbText
  0
POLYLINE
  5
6FA
100
AcDbEntity
  8
LAY-3
  6
CONTINUOUS
 62
     1
100
AcDb2dPolyline
 66
     1
 10
0.0
 20
0.0
 30
0.0
 70
   128
  0
VERTEX
  5
6FB
100
AcDbEntity
  8
LAY-3
  6
CONTINUOUS
 62
     1
100
AcDbVertex
100
AcDb2dVertex
 10
135.916739
 20
52.765521
 30
0.0
  0
VERTEX
  5
6FC
100
AcDbEntity
  8
LAY-3
  6
CONTINUOUS
 62
     1
100
AcDbVertex
100
AcDb2dVertex
 10
121.989333
 20
28.470238
 30
0.0
  0
SEQEND
  5
6FD
100
AcDbEntity
  8
LAY-3
  6
CONTINUOUS
 62
     1
  0
LINE
  5
6FE
100
AcDbEntity
  8
LAY-3
  6
CONTINUOUS
 62
     1
100
AcDbLine
 10
135.387629
 20
51.339848
 30
0.0
 11
135.916739
 21
52.765521
 31
0.0
  0
LINE
  5
6FF
100
AcDbEntity
  8
LAY-3
  6
CONTINUOUS
 62
     1
100
AcDbLine
 10
135.916739
 20
52.765521
 30
0.0
 11
134.953849
 21
51.588515
 31
0.0
  0
CIRCLE
  5
700
100
AcDbEntity
  8
LAY-3
  6
CONTINUOUS
 62
     1
100
AcDbCircle
 10
130.0
 20
25.0
 30
0.0
 40
4.0
  0
TEXT
  5
701
100
AcDbEntity
  8
LAY-3
  6
CONTINUOUS
 62
     3
100
AcDbText
 10
127.971573
 20
22.171573
 30
0.0
 40
5.656854
  1
13
 41
0.5
  7
EXCADSTD
 72
     5
 11
132.497056
 21
22.171573
 31
0.0
100
AcDbText
  0
POLYLINE
  5
702
100
AcDbEntity
  8
LAY-3
  6
CONTINUOUS
 62
     1
100
AcDb2dPolyline
 66
     1
 10
0.0
 20
0.0
 30
0.0
 70
   128
  0
VERTEX
  5
703
100
AcDbEntity
  8
LAY-3
  6
CONTINUOUS
 62
     1
100
AcDbVertex
100
AcDb2dVertex
 10
175.35
 20
86.633975
 30
0.0
  0
VERTEX
  5
704
100
AcDbEntity
  8
LAY-3
  6
CONTINUOUS
 62
     1
100
AcDbVertex
100
AcDb2dVertex
 10
132.37061
 20
28.221833
 30
0.0
  0
SEQEND
  5
705
100
AcDbEntity
  8
LAY-3
  6
CONTINUOUS
 62
     1
  0
LINE
  5
706
100
AcDbEntity
  8
LAY-3
  6
CONTINUOUS
 62
     1
100
AcDbLine
 10
174.662386
 20
85.277624
 30
0.0
 11
175.35
 21
86.633975
 31
0.0
  0
LINE
  5
707
100
AcDbEntity
  8
LAY-3
  6
CONTINUOUS
 62
     1
100
AcDbLine
 10
175.35
 20
86.633975
 30
0.0
 11
174.259657
 21
85.57395
 31
0.0
  0
CIRCLE
  5
708
100
AcDbEntity
  8
LAY-3
  6
CONTINUOUS
 62
     1
100
AcDbCircle
 10
140.0
 20
25.0
 30
0.0
 40
4.0
  0
TEXT
  5
709
100
AcDbEntity
  8
LAY-3
  6
CONTINUOUS
 62
     3
100
AcDbText
 10
137.971573
 20
22.171573
 30
0.0
 40
5.656854
  1
8
  7
EXCADSTD
 72
     5
 11
141.648528
 21
22.171573
 31
0.0
100
AcDbText
  0
POLYLINE
  5
70A
100
AcDbEntity
  8
LAY-3
  6
CONTINUOUS
 62
     1
100
AcDb2dPolyline
 66
     1
 10
0.0
 20
0.0
 30
0.0
 70
   128
  0
VERTEX
  5
70B
100
AcDbEntity
  8
LAY-3
  6
CONTINUOUS
 62
     1
100
AcDbVertex
100
AcDb2dVertex
 10
178.84109
 20
76.484215
 30
0.0
  0
VERTEX
  5
70C
100
AcDbEntity
  8
LAY-3
  6
CONTINUOUS
 62
     1
100
AcDbVertex
100
AcDb2dVertex
 10
142.409038
 20
28.193202
 30
0.0
  0
SEQEND
  5
70D
100
AcDbEntity
  8
LAY-3
  6
CONTINUOUS
 62
     1
  0
LINE
  5
70E
100
AcDbEntity
  8
LAY-3
  6
CONTINUOUS
 62
     1
100
AcDbLine
 10
178.137276
 20
75.1362
 30
0.0
 11
178.84109
 21
76.484215
 31
0.0
  0
LINE
  5
70F
100
AcDbEntity
  8
LAY-3
  6
CONTINUOUS
 62
     1
100
AcDbLine
 10
178.84109
 20
76.484215
 30
0.0
 11
177.738126
 21
75.437329
 31
0.0
  0
CIRCLE
  5
710
100
AcDbEntity
  8
LAY-3
  6
CONTINUOUS
 62
     1
100
AcDbCircle
 10
150.0
 20
25.0
 30
0.0
 40
4.0
  0
TEXT
  5
711
100
AcDbEntity
  8
LAY-3
  6
CONTINUOUS
 62
     3
100
AcDbText
 10
147.971573
 20
22.171573
 30
0.0
 40
5.656854
  1
9
  7
EXCADSTD
 72
     5
 11
151.648528
 21
22.171573
 31
0.0
100
AcDbText
  0
POLYLINE
  5
712
100
AcDbEntity
  8
LAY-3
  6
CONTINUOUS
 62
     1
100
AcDb2dPolyline
 66
     1
 10
0.0
 20
0.0
 30
0.0
 70
   128
  0
VERTEX
  5
713
100
AcDbEntity
  8
LAY-3
  6
CONTINUOUS
 62
     1
100
AcDbVertex
100
AcDb2dVertex
 10
174.037822
 20
64.35
 30
0.0
  0
VERTEX
  5
714
100
AcDbEntity
  8
LAY-3
  6
CONTINUOUS
 62
     1
100
AcDbVertex
100
AcDb2dVertex
 10
152.085206
 20
28.41349
 30
0.0
  0
SEQEND
  5
715
100
AcDbEntity
  8
LAY-3
  6
CONTINUOUS
 62
     1
  0
LINE
  5
716
100
AcDbEntity
  8
LAY-3
  6
CONTINUOUS
 62
     1
100
AcDbLine
 10
173.469213
 20
62.939616
 30
0.0
 11
174.037822
 21
64.35
 31
0.0
  0
LINE
  5
717
100
AcDbEntity
  8
LAY-3
  6
CONTINUOUS
 62
     1
100
AcDbLine
 10
174.037822
 20
64.35
 30
0.0
 11
173.042527
 21
63.200267
 31
0.0
  0
CIRCLE
  5
718
100
AcDbEntity
  8
LAY-3
  6
CONTINUOUS
 62
     1
100
AcDbCircle
 10
160.0
 20
25.0
 30
0.0
 40
4.0
  0
TEXT
  5
719
100
AcDbEntity
  8
LAY-3
  6
CONTINUOUS
 62
     3
100
AcDbText
 10
157.971573
 20
22.171573
 30
0.0
 40
5.656854
  1
6
  7
EXCADSTD
 72
     5
 11
161.648528
 21
22.171573
 31
0.0
100
AcDbText
  0
POLYLINE
  5
71A
100
AcDbEntity
  8
LAY-3
  6
CONTINUOUS
 62
     1
100
AcDb2dPolyline
 66
     1
 10
0.0
 20
0.0
 30
0.0
 70
   128
  0
VERTEX
  5
71B
100
AcDbEntity
  8
LAY-3
  6
CONTINUOUS
 62
     1
100
AcDbVertex
100
AcDb2dVertex
 10
176.5
 20
59.633975
 30
0.0
  0
VERTEX
  5
71C
100
AcDbEntity
  8
LAY-3
  6
CONTINUOUS
 62
     1
100
AcDbVertex
100
AcDb2dVertex
 10
161.720383
 20
28.611133
 30
0.0
  0
SEQEND
  5
71D
100
AcDbEntity
  8
LAY-3
  6
CONTINUOUS
 62
     1
  0
LINE
  5
71E
100
AcDbEntity
  8
LAY-3
  6
CONTINUOUS
 62
     1
100
AcDbLine
 10
176.080552
 20
58.172276
 30
0.0
 11
176.5
 21
59.633975
 31
0.0
  0
LINE
  5
71F
100
AcDbEntity
  8
LAY-3
  6
CONTINUOUS
 62
     1
100
AcDbLine
 10
176.5
 20
59.633975
 30
0.0
 11
175.629161
 21
58.387324
 31
0.0
  0
CIRCLE
  5
720
100
AcDbEntity
  8
LAY-3
  6
CONTINUOUS
 62
     1
100
AcDbCircle
 10
170.0
 20
25.0
 30
0.0
 40
4.0
  0
TEXT
  5
721
100
AcDbEntity
  8
LAY-3
  6
CONTINUOUS
 62
     3
100
AcDbText
 10
167.971573
 20
22.171573
 30
0.0
 40
5.656854
  1
10
 41
0.5
  7
EXCADSTD
 72
     5
 11
172.497056
 21
22.171573
 31
0.0
100
AcDbText
  0
POLYLINE
  5
722
100
AcDbEntity
  8
LAY-3
  6
CONTINUOUS
 62
     1
100
AcDb2dPolyline
 66
     1
 10
0.0
 20
0.0
 30
0.0
 70
   128
  0
VERTEX
  5
723
100
AcDbEntity
  8
LAY-3
  6
CONTINUOUS
 62
     1
100
AcDbVertex
100
AcDb2dVertex
 10
178.05
 20
56.483975
 30
0.0
  0
VERTEX
  5
724
100
AcDbEntity
  8
LAY-3
  6
CONTINUOUS
 62
     1
100
AcDbVertex
100
AcDb2dVertex
 10
170.990866
 20
28.87533
 30
0.0
  0
SEQEND
  5
725
100
AcDbEntity
  8
LAY-3
  6
CONTINUOUS
 62
     1
  0
LINE
  5
726
100
AcDbEntity
  8
LAY-3
  6
CONTINUOUS
 62
     1
100
AcDbLine
 10
177.920633
 20
54.968797
 30
0.0
 11
178.05
 21
56.483975
 31
0.0
  0
LINE
  5
727
100
AcDbEntity
  8
LAY-3
  6
CONTINUOUS
 62
     1
100
AcDbLine
 10
178.05
 20
56.483975
 30
0.0
 11
177.436217
 21
55.092655
 31
0.0
  0
CIRCLE
  5
728
100
AcDbEntity
  8
LAY-3
  6
CONTINUOUS
 62
     1
100
AcDbCircle
 10
200.0
 20
25.0
 30
0.0
 40
4.0
  0
TEXT
  5
729
100
AcDbEntity
  8
LAY-3
  6
CONTINUOUS
 62
     3
100
AcDbText
 10
197.971573
 20
22.171573
 30
0.0
 40
5.656854
  1
7
  7
EXCADSTD
 72
     5
 11
201.648528
 21
22.171573
 31
0.0
100
AcDbText
  0
POLYLINE
  5
72A
100
AcDbEntity
  8
LAY-3
  6
CONTINUOUS
 62
     1
100
AcDb2dPolyline
 66
     1
 10
0.0
 20
0.0
 30
0.0
 70
   128
  0
VERTEX
  5
72B
100
AcDbEntity
  8
LAY-3
  6
CONTINUOUS
 62
     1
100
AcDbVertex
100
AcDb2dVertex
 10
191.3
 20
43.483975
 30
0.0
  0
VERTEX
  5
72C
100
AcDbEntity
  8
LAY-3
  6
CONTINUOUS
 62
     1
100
AcDbVertex
100
AcDb2dVertex
 10
198.296546
 20
28.61915
 30
0.0
  0
SEQEND
  5
72D
100
AcDbEntity
  8
LAY-3
  6
CONTINUOUS
 62
     1
  0
LINE
  5
72E
100
AcDbEntity
  8
LAY-3
  6
CONTINUOUS
 62
     1
100
AcDbLine
 10
192.164992
 20
42.233259
 30
0.0
 11
191.3
 21
43.483975
 31
0.0
  0
LINE
  5
72F
100
AcDbEntity
  8
LAY-3
  6
CONTINUOUS
 62
     1
100
AcDbLine
 10
191.3
 20
43.483975
 30
0.0
 11
191.712598
 21
42.020328
 31
0.0
  0
CIRCLE
  5
730
100
AcDbEntity
  8
LAY-3
  6
CONTINUOUS
 62
     1
100
AcDbCircle
 10
190.0
 20
25.0
 30
0.0
 40
4.0
  0
TEXT
  5
731
100
AcDbEntity
  8
LAY-3
  6
CONTINUOUS
 62
     3
100
AcDbText
 10
187.971573
 20
22.171573
 30
0.0
 40
5.656854
  1
17
 41
0.5
  7
EXCADSTD
 72
     5
 11
192.497056
 21
22.171573
 31
0.0
100
AcDbText
  0
POLYLINE
  5
732
100
AcDbEntity
  8
LAY-3
  6
CONTINUOUS
 62
     1
100
AcDb2dPolyline
 66
     1
 10
0.0
 20
0.0
 30
0.0
 70
   128
  0
VERTEX
  5
733
100
AcDbEntity
  8
LAY-3
  6
CONTINUOUS
 62
     1
100
AcDbVertex
100
AcDb2dVertex
 10
182.35
 20
35.483975
 30
0.0
  0
VERTEX
  5
734
100
AcDbEntity
  8
LAY-3
  6
CONTINUOUS
 62
     1
100
AcDbVertex
100
AcDb2dVertex
 10
187.642218
 20
28.231232
 30
0.0
  0
SEQEND
  5
735
100
AcDbEntity
  8
LAY-3
  6
CONTINUOUS
 62
     1
  0
LINE
  5
736
100
AcDbEntity
  8
LAY-3
  6
CONTINUOUS
 62
     1
100
AcDbLine
 10
183.43612
 20
34.419624
 30
0.0
 11
182.35
 21
35.483975
 31
0.0
  0
LINE
  5
737
100
AcDbEntity
  8
LAY-3
  6
CONTINUOUS
 62
     1
100
AcDbLine
 10
182.35
 20
35.483975
 30
0.0
 11
183.032216
 21
34.124901
 31
0.0
  0
CIRCLE
  5
738
100
AcDbEntity
  8
LAY-3
  6
CONTINUOUS
 62
     1
100
AcDbCircle
 10
210.0
 20
25.0
 30
0.0
 40
4.0
  0
TEXT
  5
739
100
AcDbEntity
  8
LAY-3
  6
CONTINUOUS
 62
     3
100
AcDbText
 10
207.971573
 20
22.171573
 30
0.0
 40
5.656854
  1
4
  7
EXCADSTD
 72
     5
 11
211.648528
 21
22.171573
 31
0.0
100
AcDbText
  0
POLYLINE
  5
73A
100
AcDbEntity
  8
LAY-3
  6
CONTINUOUS
 62
     1
100
AcDb2dPolyline
 66
     1
 10
0.0
 20
0.0
 30
0.0
 70
   128
  0
VERTEX
  5
73B
100
AcDbEntity
  8
LAY-3
  6
CONTINUOUS
 62
     1
100
AcDbVertex
100
AcDb2dVertex
 10
186.55
 20
54.6
 30
0.0
  0
VERTEX
  5
73C
100
AcDbEntity
  8
LAY-3
  6
CONTINUOUS
 62
     1
100
AcDbVertex
100
AcDb2dVertex
 10
207.516103
 20
28.135324
 30
0.0
  0
SEQEND
  5
73D
100
AcDbEntity
  8
LAY-3
  6
CONTINUOUS
 62
     1
  0
LINE
  5
73E
100
AcDbEntity
  8
LAY-3
  6
CONTINUOUS
 62
     1
100
AcDbLine
 10
187.677419
 20
53.579497
 30
0.0
 11
186.55
 21
54.6
 31
0.0
  0
LINE
  5
73F
100
AcDbEntity
  8
LAY-3
  6
CONTINUOUS
 62
     1
100
AcDbLine
 10
186.55
 20
54.6
 30
0.0
 11
187.285504
 21
53.26901
 31
0.0
  0
CIRCLE
  5
740
100
AcDbEntity
  8
LAY-3
  6
CONTINUOUS
 62
     1
100
AcDbCircle
 10
220.0
 20
25.0
 30
0.0
 40
4.0
  0
TEXT
  5
741
100
AcDbEntity
  8
LAY-3
  6
CONTINUOUS
 62
     3
100
AcDbText
 10
217.971573
 20
22.171573
 30
0.0
 40
5.656854
  1
22
 41
0.5
  7
EXCADSTD
 72
     5
 11
222.497056
 21
22.171573
 31
0.0
100
AcDbText
  0
POLYLINE
  5
742
100
AcDbEntity
  8
LAY-3
  6
CONTINUOUS
 62
     1
100
AcDb2dPolyline
 66
     1
 10
0.0
 20
0.0
 30
0.0
 70
   128
  0
VERTEX
  5
743
100
AcDbEntity
  8
LAY-3
  6
CONTINUOUS
 62
     1
100
AcDbVertex
100
AcDb2dVertex
 10
183.1
 20
61.983975
 30
0.0
  0
VERTEX
  5
744
100
AcDbEntity
  8
LAY-3
  6
CONTINUOUS
 62
     1
100
AcDbVertex
100
AcDb2dVertex
 10
217.174789
 20
27.83164
 30
0.0
  0
SEQEND
  5
745
100
AcDbEntity
  8
LAY-3
  6
CONTINUOUS
 62
     1
  0
LINE
  5
746
100
AcDbEntity
  8
LAY-3
  6
CONTINUOUS
 62
     1
100
AcDbLine
 10
184.336431
 20
61.098685
 30
0.0
 11
183.1
 21
61.983975
 31
0.0
  0
LINE
  5
747
100
AcDbEntity
  8
LAY-3
  6
CONTINUOUS
 62
     1
100
AcDbLine
 10
183.1
 20
61.983975
 30
0.0
 11
183.982476
 21
60.745534
 31
0.0
  0
CIRCLE
  5
748
100
AcDbEntity
  8
LAY-3
  6
CONTINUOUS
 62
     1
100
AcDbCircle
 10
230.0
 20
25.0
 30
0.0
 40
4.0
  0
TEXT
  5
749
100
AcDbEntity
  8
LAY-3
  6
CONTINUOUS
 62
     3
100
AcDbText
 10
227.971573
 20
22.171573
 30
0.0
 40
5.656854
  1
12
 41
0.5
  7
EXCADSTD
 72
     5
 11
232.497056
 21
22.171573
 31
0.0
100
AcDbText
  0
POLYLINE
  5
74A
100
AcDbEntity
  8
LAY-3
  6
CONTINUOUS
 62
     1
100
AcDb2dPolyline
 66
     1
 10
0.0
 20
0.0
 30
0.0
 70
   128
  0
VERTEX
  5
74B
100
AcDbEntity
  8
LAY-3
  6
CONTINUOUS
 62
     1
100
AcDbVertex
100
AcDb2dVertex
 10
189.6
 20
60.8
 30
0.0
  0
VERTEX
  5
74C
100
AcDbEntity
  8
LAY-3
  6
CONTINUOUS
 62
     1
100
AcDbVertex
100
AcDb2dVertex
 10
227.006278
 20
27.652853
 30
0.0
  0
SEQEND
  5
74D
100
AcDbEntity
  8
LAY-3
  6
CONTINUOUS
 62
     1
  0
LINE
  5
74E
100
AcDbEntity
  8
LAY-3
  6
CONTINUOUS
 62
     1
100
AcDbLine
 10
190.888449
 20
59.992288
 30
0.0
 11
189.6
 21
60.8
 31
0.0
  0
LINE
  5
74F
100
AcDbEntity
  8
LAY-3
  6
CONTINUOUS
 62
     1
100
AcDbLine
 10
189.6
 20
60.8
 30
0.0
 11
190.556842
 21
59.618073
 31
0.0
  0
CIRCLE
  5
750
100
AcDbEntity
  8
LAY-3
  6
CONTINUOUS
 62
     1
100
AcDbCircle
 10
270.0
 20
255.0
 30
0.0
 40
4.0
  0
TEXT
  5
751
100
AcDbEntity
  8
LAY-3
  6
CONTINUOUS
 62
     3
100
AcDbText
 10
267.971573
 20
252.171573
 30
0.0
 40
5.656854
  1
11
 41
0.5
  7
EXCADSTD
 72
     5
 11
272.497056
 21
252.171573
 31
0.0
100
AcDbText
  0
POLYLINE
  5
752
100
AcDbEntity
  8
LAY-3
  6
CONTINUOUS
 62
     1
100
AcDb2dPolyline
 66
     1
 10
0.0
 20
0.0
 30
0.0
 70
   128
  0
VERTEX
  5
753
100
AcDbEntity
  8
LAY-3
  6
CONTINUOUS
 62
     1
100
AcDbVertex
100
AcDb2dVertex
 10
187.605553
 20
224.45
 30
0.0
  0
VERTEX
  5
754
100
AcDbEntity
  8
LAY-3
  6
CONTINUOUS
 62
     1
100
AcDbVertex
100
AcDb2dVertex
 10
266.249502
 20
253.6094
 30
0.0
  0
SEQEND
  5
755
100
AcDbEntity
  8
LAY-3
  6
CONTINUOUS
 62
     1
  0
LINE
  5
756
100
AcDbEntity
  8
LAY-3
  6
CONTINUOUS
 62
     1
100
AcDbLine
 10
188.925078
 20
225.205881
 30
0.0
 11
187.605553
 21
224.45
 31
0.0
  0
LINE
  5
757
100
AcDbEntity
  8
LAY-3
  6
CONTINUOUS
 62
     1
100
AcDbLine
 10
187.605553
 20
224.45
 30
0.0
 11
189.098903
 21
224.737069
 31
0.0
  0
CIRCLE
  5
758
100
AcDbEntity
  8
LAY-3
  6
CONTINUOUS
 62
     1
100
AcDbCircle
 10
270.0
 20
245.0
 30
0.0
 40
4.0
  0
TEXT
  5
759
100
AcDbEntity
  8
LAY-3
  6
CONTINUOUS
 62
     3
100
AcDbText
 10
267.971573
 20
242.171573
 30
0.0
 40
5.656854
  1
20
 41
0.5
  7
EXCADSTD
 72
     5
 11
272.497056
 21
242.171573
 31
0.0
100
AcDbText
  0
POLYLINE
  5
75A
100
AcDbEntity
  8
LAY-3
  6
CONTINUOUS
 62
     1
100
AcDb2dPolyline
 66
     1
 10
0.0
 20
0.0
 30
0.0
 70
   128
  0
VERTEX
  5
75B
100
AcDbEntity
  8
LAY-3
  6
CONTINUOUS
 62
     1
100
AcDbVertex
100
AcDb2dVertex
 10
187.025
 20
198.62553
 30
0.0
  0
VERTEX
  5
75C
100
AcDbEntity
  8
LAY-3
  6
CONTINUOUS
 62
     1
100
AcDbVertex
100
AcDb2dVertex
 10
266.508335
 20
243.048519
 30
0.0
  0
SEQEND
  5
75D
100
AcDbEntity
  8
LAY-3
  6
CONTINUOUS
 62
     1
  0
LINE
  5
75E
100
AcDbEntity
  8
LAY-3
  6
CONTINUOUS
 62
     1
100
AcDbLine
 10
188.212407
 20
199.575565
 30
0.0
 11
187.025
 21
198.62553
 31
0.0
  0
LINE
  5
75F
100
AcDbEntity
  8
LAY-3
  6
CONTINUOUS
 62
     1
100
AcDbLine
 10
187.025
 20
198.62553
 30
0.0
 11
188.456342
 21
199.139107
 31
0.0
  0
CIRCLE
  5
760
100
AcDbEntity
  8
LAY-3
  6
CONTINUOUS
 62
     1
100
AcDbCircle
 10
270.0
 20
235.0
 30
0.0
 40
4.0
  0
TEXT
  5
761
100
AcDbEntity
  8
LAY-3
  6
CONTINUOUS
 62
     3
100
AcDbText
 10
267.971573
 20
232.171573
 30
0.0
 40
5.656854
  1
2
  7
EXCADSTD
 72
     5
 11
271.648528
 21
232.171573
 31
0.0
100
AcDbText
  0
POLYLINE
  5
762
100
AcDbEntity
  8
LAY-3
  6
CONTINUOUS
 62
     1
100
AcDb2dPolyline
 66
     1
 10
0.0
 20
0.0
 30
0.0
 70
   128
  0
VERTEX
  5
763
100
AcDbEntity
  8
LAY-3
  6
CONTINUOUS
 62
     1
100
AcDbVertex
100
AcDb2dVertex
 10
208.630943
 20
186.16117
 30
0.0
  0
VERTEX
  5
764
100
AcDbEntity
  8
LAY-3
  6
CONTINUOUS
 62
     1
100
AcDbVertex
100
AcDb2dVertex
 10
266.870156
 20
232.509202
 30
0.0
  0
SEQEND
  5
765
100
AcDbEntity
  8
LAY-3
  6
CONTINUOUS
 62
     1
  0
LINE
  5
766
100
AcDbEntity
  8
LAY-3
  6
CONTINUOUS
 62
     1
100
AcDbLine
 10
209.64896
 20
187.290834
 30
0.0
 11
208.630943
 21
186.16117
 31
0.0
  0
LINE
  5
767
100
AcDbEntity
  8
LAY-3
  6
CONTINUOUS
 62
     1
100
AcDbLine
 10
208.630943
 20
186.16117
 30
0.0
 11
209.96031
 21
186.899604
 31
0.0
  0
CIRCLE
  5
768
100
AcDbEntity
  8
LAY-3
  6
CONTINUOUS
 62
     1
100
AcDbCircle
 10
270.0
 20
225.0
 30
0.0
 40
4.0
  0
TEXT
  5
769
100
AcDbEntity
  8
LAY-3
  6
CONTINUOUS
 62
     3
100
AcDbText
 10
267.971573
 20
222.171573
 30
0.0
 40
5.656854
  1
15
 41
0.5
  7
EXCADSTD
 72
     5
 11
272.497056
 21
222.171573
 31
0.0
100
AcDbText
  0
POLYLINE
  5
76A
100
AcDbEntity
  8
LAY-3
  6
CONTINUOUS
 62
     1
100
AcDb2dPolyline
 66
     1
 10
0.0
 20
0.0
 30
0.0
 70
   128
  0
VERTEX
  5
76B
100
AcDbEntity
  8
LAY-3
  6
CONTINUOUS
 62
     1
100
AcDbVertex
100
AcDb2dVertex
 10
197.15
 20
165.475074
 30
0.0
  0
VERTEX
  5
76C
100
AcDbEntity
  8
LAY-3
  6
CONTINUOUS
 62
     1
100
AcDbVertex
100
AcDb2dVertex
 10
266.902512
 20
222.469077
 30
0.0
  0
SEQEND
  5
76D
100
AcDbEntity
  8
LAY-3
  6
CONTINUOUS
 62
     1
  0
LINE
  5
76E
100
AcDbEntity
  8
LAY-3
  6
CONTINUOUS
 62
     1
100
AcDbLine
 10
198.153375
 20
166.617763
 30
0.0
 11
197.15
 21
165.475074
 31
0.0
  0
LINE
  5
76F
100
AcDbEntity
  8
LAY-3
  6
CONTINUOUS
 62
     1
100
AcDbLine
 10
197.15
 20
165.475074
 30
0.0
 11
198.469741
 21
166.230577
 31
0.0
  0
CIRCLE
  5
770
100
AcDbEntity
  8
LAY-3
  6
CONTINUOUS
 62
     1
100
AcDbCircle
 10
270.0
 20
215.0
 30
0.0
 40
4.0
  0
TEXT
  5
771
100
AcDbEntity
  8
LAY-3
  6
CONTINUOUS
 62
     3
100
AcDbText
 10
267.971573
 20
212.171573
 30
0.0
 40
5.656854
  1
3
  7
EXCADSTD
 72
     5
 11
271.648528
 21
212.171573
 31
0.0
100
AcDbText
  0
POLYLINE
  5
772
100
AcDbEntity
  8
LAY-3
  6
CONTINUOUS
 62
     1
100
AcDb2dPolyline
 66
     1
 10
0.0
 20
0.0
 30
0.0
 70
   128
  0
VERTEX
  5
773
100
AcDbEntity
  8
LAY-3
  6
CONTINUOUS
 62
     1
100
AcDbVertex
100
AcDb2dVertex
 10
203.85
 20
154.85
 30
0.0
  0
VERTEX
  5
774
100
AcDbEntity
  8
LAY-3
  6
CONTINUOUS
 62
     1
100
AcDbVertex
100
AcDb2dVertex
 10
267.040543
 20
212.308975
 30
0.0
  0
SEQEND
  5
775
100
AcDbEntity
  8
LAY-3
  6
CONTINUOUS
 62
     1
  0
LINE
  5
776
100
AcDbEntity
  8
LAY-3
  6
CONTINUOUS
 62
     1
100
AcDbLine
 10
204.791607
 20
156.0441
 30
0.0
 11
203.85
 21
154.85
 31
0.0
  0
LINE
  5
777
100
AcDbEntity
  8
LAY-3
  6
CONTINUOUS
 62
     1
100
AcDbLine
 10
203.85
 20
154.85
 30
0.0
 11
205.127985
 21
155.674168
 31
0.0
  0
CIRCLE
  5
778
100
AcDbEntity
  8
LAY-3
  6
CONTINUOUS
 62
     1
100
AcDbCircle
 10
270.0
 20
185.0
 30
0.0
 40
4.0
  0
TEXT
  5
779
100
AcDbEntity
  8
LAY-3
  6
CONTINUOUS
 62
     3
100
AcDbText
 10
267.971573
 20
182.171573
 30
0.0
 40
5.656854
  1
19
 41
0.5
  7
EXCADSTD
 72
     5
 11
272.497056
 21
182.171573
 31
0.0
100
AcDbText
  0
POLYLINE
  5
77A
100
AcDbEntity
  8
LAY-3
  6
CONTINUOUS
 62
     1
100
AcDb2dPolyline
 66
     1
 10
0.0
 20
0.0
 30
0.0
 70
   128
  0
VERTEX
  5
77B
100
AcDbEntity
  8
LAY-3
  6
CONTINUOUS
 62
     1
100
AcDbVertex
100
AcDb2dVertex
 10
185.584828
 20
122.7
 30
0.0
  0
VERTEX
  5
77C
100
AcDbEntity
  8
LAY-3
  6
CONTINUOUS
 62
     1
100
AcDbVertex
100
AcDb2dVertex
 10
266.781586
 20
182.62475
 30
0.0
  0
SEQEND
  5
77D
100
AcDbEntity
  8
LAY-3
  6
CONTINUOUS
 62
     1
  0
LINE
  5
77E
100
AcDbEntity
  8
LAY-3
  6
CONTINUOUS
 62
     1
100
AcDbLine
 10
186.64328
 20
123.79187
 30
0.0
 11
185.584828
 21
122.7
 31
0.0
  0
LINE
  5
77F
100
AcDbEntity
  8
LAY-3
  6
CONTINUOUS
 62
     1
100
AcDbLine
 10
185.584828
 20
122.7
 30
0.0
 11
186.940186
 21
123.389568
 31
0.0
  0
CIRCLE
  5
780
100
AcDbEntity
  8
LAY-3
  6
CONTINUOUS
 62
     1
100
AcDbCircle
 10
270.0
 20
175.0
 30
0.0
 40
4.0
  0
TEXT
  5
781
100
AcDbEntity
  8
LAY-3
  6
CONTINUOUS
 62
     3
100
AcDbText
 10
267.971573
 20
172.171573
 30
0.0
 40
5.656854
  1
16
 41
0.5
  7
EXCADSTD
 72
     5
 11
272.497056
 21
172.171573
 31
0.0
100
AcDbText
  0
POLYLINE
  5
782
100
AcDbEntity
  8
LAY-3
  6
CONTINUOUS
 62
     1
100
AcDb2dPolyline
 66
     1
 10
0.0
 20
0.0
 30
0.0
 70
   128
  0
VERTEX
  5
783
100
AcDbEntity
  8
LAY-3
  6
CONTINUOUS
 62
     1
100
AcDbVertex
100
AcDb2dVertex
 10
188.85
 20
109.336252
 30
0.0
  0
VERTEX
  5
784
100
AcDbEntity
  8
LAY-3
  6
CONTINUOUS
 62
     1
100
AcDbVertex
100
AcDb2dVertex
 10
266.890475
 20
172.483881
 30
0.0
  0
SEQEND
  5
785
100
AcDbEntity
  8
LAY-3
  6
CONTINUOUS
 62
     1
  0
LINE
  5
786
100
AcDbEntity
  8
LAY-3
  6
CONTINUOUS
 62
     1
100
AcDbLine
 10
189.858814
 20
110.474142
 30
0.0
 11
188.85
 21
109.336252
 31
0.0
  0
LINE
  5
787
100
AcDbEntity
  8
LAY-3
  6
CONTINUOUS
 62
     1
100
AcDbLine
 10
188.85
 20
109.336252
 30
0.0
 11
190.173329
 21
110.085452
 31
0.0
  0
CIRCLE
  5
788
100
AcDbEntity
  8
LAY-3
  6
CONTINUOUS
 62
     1
100
AcDbCircle
 10
270.0
 20
165.0
 30
0.0
 40
4.0
  0
TEXT
  5
789
100
AcDbEntity
  8
LAY-3
  6
CONTINUOUS
 62
     3
100
AcDbText
 10
267.971573
 20
162.171573
 30
0.0
 40
5.656854
  1
21
 41
0.5
  7
EXCADSTD
 72
     5
 11
272.497056
 21
162.171573
 31
0.0
100
AcDbText
  0
POLYLINE
  5
78A
100
AcDbEntity
  8
LAY-3
  6
CONTINUOUS
 62
     1
100
AcDb2dPolyline
 66
     1
 10
0.0
 20
0.0
 30
0.0
 70
   128
  0
VERTEX
  5
78B
100
AcDbEntity
  8
LAY-3
  6
CONTINUOUS
 62
     1
100
AcDbVertex
100
AcDb2dVertex
 10
221.9
 20
127.475074
 30
0.0
  0
VERTEX
  5
78C
100
AcDbEntity
  8
LAY-3
  6
CONTINUOUS
 62
     1
100
AcDbVertex
100
AcDb2dVertex
 10
266.841308
 20
162.545888
 30
0.0
  0
SEQEND
  5
78D
100
AcDbEntity
  8
LAY-3
  6
CONTINUOUS
 62
     1
  0
LINE
  5
78E
100
AcDbEntity
  8
LAY-3
  6
CONTINUOUS
 62
     1
100
AcDbLine
 10
222.928738
 20
128.594983
 30
0.0
 11
221.9
 21
127.475074
 31
0.0
  0
LINE
  5
78F
100
AcDbEntity
  8
LAY-3
  6
CONTINUOUS
 62
     1
100
AcDbLine
 10
221.9
 20
127.475074
 30
0.0
 11
223.236345
 21
128.200803
 31
0.0
  0
CIRCLE
  5
790
100
AcDbEntity
  8
LAY-3
  6
CONTINUOUS
 62
     1
100
AcDbCircle
 10
270.0
 20
155.0
 30
0.0
 40
4.0
  0
TEXT
  5
791
100
AcDbEntity
  8
LAY-3
  6
CONTINUOUS
 62
     3
100
AcDbText
 10
267.971573
 20
152.171573
 30
0.0
 40
5.656854
  1
14
 41
0.5
  7
EXCADSTD
 72
     5
 11
272.497056
 21
152.171573
 31
0.0
100
AcDbText
  0
POLYLINE
  5
792
100
AcDbEntity
  8
LAY-3
  6
CONTINUOUS
 62
     1
100
AcDb2dPolyline
 66
     1
 10
0.0
 20
0.0
 30
0.0
 70
   128
  0
VERTEX
  5
793
100
AcDbEntity
  8
LAY-3
  6
CONTINUOUS
 62
     1
100
AcDbVertex
100
AcDb2dVertex
 10
212.5
 20
118.883975
 30
0.0
  0
VERTEX
  5
794
100
AcDbEntity
  8
LAY-3
  6
CONTINUOUS
 62
     1
100
AcDbVertex
100
AcDb2dVertex
 10
266.612742
 20
152.872447
 30
0.0
  0
SEQEND
  5
795
100
AcDbEntity
  8
LAY-3
  6
CONTINUOUS
 62
     1
  0
LINE
  5
796
100
AcDbEntity
  8
LAY-3
  6
CONTINUOUS
 62
     1
100
AcDbLine
 10
213.63725
 20
119.893511
 30
0.0
 11
212.5
 21
118.883975
 31
0.0
  0
LINE
  5
797
100
AcDbEntity
  8
LAY-3
  6
CONTINUOUS
 62
     1
100
AcDbLine
 10
212.5
 20
118.883975
 30
0.0
 11
213.903194
 21
119.470103
 31
0.0
  0
CIRCLE
  5
798
100
AcDbEntity
  8
LAY-3
  6
CONTINUOUS
 62
     1
100
AcDbCircle
 10
270.0
 20
145.0
 30
0.0
 40
4.0
  0
TEXT
  5
799
100
AcDbEntity
  8
LAY-3
  6
CONTINUOUS
 62
     3
100
AcDbText
 10
267.971573
 20
142.171573
 30
0.0
 40
5.656854
  1
19
 41
0.5
  7
EXCADSTD
 72
     5
 11
272.497056
 21
142.171573
 31
0.0
100
AcDbText
  0
POLYLINE
  5
79A
100
AcDbEntity
  8
LAY-3
  6
CONTINUOUS
 62
     1
100
AcDb2dPolyline
 66
     1
 10
0.0
 20
0.0
 30
0.0
 70
   128
  0
VERTEX
  5
79B
100
AcDbEntity
  8
LAY-3
  6
CONTINUOUS
 62
     1
100
AcDbVertex
100
AcDb2dVertex
 10
235.584828
 20
125.4
 30
0.0
  0
VERTEX
  5
79C
100
AcDbEntity
  8
LAY-3
  6
CONTINUOUS
 62
     1
100
AcDbVertex
100
AcDb2dVertex
 10
266.524168
 20
143.020457
 30
0.0
  0
SEQEND
  5
79D
100
AcDbEntity
  8
LAY-3
  6
CONTINUOUS
 62
     1
  0
LINE
  5
79E
100
AcDbEntity
  8
LAY-3
  6
CONTINUOUS
 62
     1
100
AcDbLine
 10
236.764543
 20
126.359568
 30
0.0
 11
235.584828
 21
125.4
 31
0.0
  0
LINE
  5
79F
100
AcDbEntity
  8
LAY-3
  6
CONTINUOUS
 62
     1
100
AcDbLine
 10
235.584828
 20
125.4
 30
0.0
 11
237.011986
 21
125.925089
 31
0.0
  0
CIRCLE
  5
7A0
100
AcDbEntity
  8
LAY-3
  6
CONTINUOUS
 62
     1
100
AcDbCircle
 10
270.0
 20
135.0
 30
0.0
 40
4.0
  0
TEXT
  5
7A1
100
AcDbEntity
  8
LAY-3
  6
CONTINUOUS
 62
     3
100
AcDbText
 10
267.971573
 20
132.171573
 30
0.0
 40
5.656854
  1
5
  7
EXCADSTD
 72
     5
 11
271.648528
 21
132.171573
 31
0.0
100
AcDbText
  0
POLYLINE
  5
7A2
100
AcDbEntity
  8
LAY-3
  6
CONTINUOUS
 62
     1
100
AcDb2dPolyline
 66
     1
 10
0.0
 20
0.0
 30
0.0
 70
   128
  0
VERTEX
  5
7A3
100
AcDbEntity
  8
LAY-3
  6
CONTINUOUS
 62
     1
100
AcDbVertex
100
AcDb2dVertex
 10
218.677408
 20
116.275018
 30
0.0
  0
VERTEX
  5
7A4
100
AcDbEntity
  8
LAY-3
  6
CONTINUOUS
 62
     1
100
AcDbVertex
100
AcDb2dVertex
 10
266.242292
 20
133.629005
 30
0.0
  0
SEQEND
  5
7A5
100
AcDbEntity
  8
LAY-3
  6
CONTINUOUS
 62
     1
  0
LINE
  5
7A6
100
AcDbEntity
  8
LAY-3
  6
CONTINUOUS
 62
     1
100
AcDbLine
 10
220.000861
 20
117.023998
 30
0.0
 11
218.677408
 21
116.275018
 31
0.0
  0
LINE
  5
7A7
100
AcDbEntity
  8
LAY-3
  6
CONTINUOUS
 62
     1
100
AcDbLine
 10
218.677408
 20
116.275018
 30
0.0
 11
220.172236
 21
116.554284
 31
0.0
  0
CIRCLE
  5
7A8
100
AcDbEntity
  8
LAY-3
  6
CONTINUOUS
 62
     1
100
AcDbCircle
 10
270.0
 20
125.0
 30
0.0
 40
4.0
  0
TEXT
  5
7A9
100
AcDbEntity
  8
LAY-3
  6
CONTINUOUS
 62
     3
100
AcDbText
 10
267.971573
 20
122.171573
 30
0.0
 40
5.656854
  1
18
 41
0.5
  7
EXCADSTD
 72
     5
 11
272.497056
 21
122.171573
 31
0.0
100
AcDbText
  0
POLYLINE
  5
7AA
100
AcDbEntity
  8
LAY-3
  6
CONTINUOUS
 62
     1
100
AcDb2dPolyline
 66
     1
 10
0.0
 20
0.0
 30
0.0
 70
   128
  0
VERTEX
  5
7AB
100
AcDbEntity
  8
LAY-3
  6
CONTINUOUS
 62
     1
100
AcDbVertex
100
AcDb2dVertex
 10
235.584828
 20
103.3
 30
0.0
  0
VERTEX
  5
7AC
100
AcDbEntity
  8
LAY-3
  6
CONTINUOUS
 62
     1
100
AcDbVertex
100
AcDb2dVertex
 10
266.616452
 20
122.866552
 30
0.0
  0
SEQEND
  5
7AD
100
AcDbEntity
  8
LAY-3
  6
CONTINUOUS
 62
     1
  0
LINE
  5
7AE
100
AcDbEntity
  8
LAY-3
  6
CONTINUOUS
 62
     1
100
AcDbLine
 10
236.720318
 20
104.311515
 30
0.0
 11
235.584828
 21
103.3
 31
0.0
  0
LINE
  5
7AF
100
AcDbEntity
  8
LAY-3
  6
CONTINUOUS
 62
     1
100
AcDbLine
 10
235.584828
 20
103.3
 30
0.0
 11
236.986999
 21
103.888571
 31
0.0
  0
CIRCLE
  5
7B0
100
AcDbEntity
  8
LAY-3
  6
CONTINUOUS
 62
     1
100
AcDbCircle
 10
105.0
 20
135.0
 30
0.0
 40
4.0
  0
TEXT
  5
7B1
100
AcDbEntity
  8
LAY-3
  6
CONTINUOUS
 62
     3
100
AcDbText
 10
102.971573
 20
132.171573
 30
0.0
 40
5.656854
  1
27
 41
0.5
  7
EXCADSTD
 72
     5
 11
107.497056
 21
132.171573
 31
0.0
100
AcDbText
  0
POLYLINE
  5
7B2
100
AcDbEntity
  8
LAY-3
  6
CONTINUOUS
 62
     1
100
AcDb2dPolyline
 66
     1
 10
0.0
 20
0.0
 30
0.0
 70
   128
  0
VERTEX
  5
7B3
100
AcDbEntity
  8
LAY-3
  6
CONTINUOUS
 62
     1
100
AcDbVertex
100
AcDb2dVertex
 10
176.95
 20
93.783975
 30
0.0
  0
VERTEX
  5
7B4
100
AcDbEntity
  8
LAY-3
  6
CONTINUOUS
 62
     1
100
AcDbVertex
100
AcDb2dVertex
 10
108.470856
 20
133.011746
 30
0.0
  0
SEQEND
  5
7B5
100
AcDbEntity
  8
LAY-3
  6
CONTINUOUS
 62
     1
  0
LINE
  5
7B6
100
AcDbEntity
  8
LAY-3
  6
CONTINUOUS
 62
     1
100
AcDbLine
 10
175.524163
 20
94.312641
 30
0.0
 11
176.95
 21
93.783975
 31
0.0
  0
LINE
  5
7B7
100
AcDbEntity
  8
LAY-3
  6
CONTINUOUS
 62
     1
100
AcDbLine
 10
176.95
 20
93.783975
 30
0.0
 11
175.772695
 21
94.746499
 31
0.0
  0
CIRCLE
  5
7B8
100
AcDbEntity
  8
LAY-3
  6
CONTINUOUS
 62
     1
100
AcDbCircle
 10
105.0
 20
145.0
 30
0.0
 40
4.0
  0
TEXT
  5
7B9
100
AcDbEntity
  8
LAY-3
  6
CONTINUOUS
 62
     3
100
AcDbText
 10
102.971573
 20
142.171573
 30
0.0
 40
5.656854
  1
25
 41
0.5
  7
EXCADSTD
 72
     5
 11
107.497056
 21
142.171573
 31
0.0
100
AcDbText
  0
POLYLINE
  5
7BA
100
AcDbEntity
  8
LAY-3
  6
CONTINUOUS
 62
     1
100
AcDb2dPolyline
 66
     1
 10
0.0
 20
0.0
 30
0.0
 70
   128
  0
VERTEX
  5
7BB
100
AcDbEntity
  8
LAY-3
  6
CONTINUOUS
 62
     1
100
AcDbVertex
100
AcDb2dVertex
 10
176.45
 20
95.433975
 30
0.0
  0
VERTEX
  5
7BC
100
AcDbEntity
  8
LAY-3
  6
CONTINUOUS
 62
     1
100
AcDbVertex
100
AcDb2dVertex
 10
108.286601
 20
142.720032
 30
0.0
  0
SEQEND
  5
7BD
100
AcDbEntity
  8
LAY-3
  6
CONTINUOUS
 62
     1
  0
LINE
  5
7BE
100
AcDbEntity
  8
LAY-3
  6
CONTINUOUS
 62
     1
100
AcDbLine
 10
175.075027
 20
96.08355
 30
0.0
 11
176.45
 21
95.433975
 31
0.0
  0
LINE
  5
7BF
100
AcDbEntity
  8
LAY-3
  6
CONTINUOUS
 62
     1
100
AcDbLine
 10
176.45
 20
95.433975
 30
0.0
 11
175.360023
 21
96.494375
 31
0.0
  0
POLYLINE
  5
7C0
100
AcDbEntity
  8
LAY-3
  6
CONTINUOUS
 62
     1
100
AcDb2dPolyline
 66
     1
 10
0.0
 20
0.0
 30
0.0
 70
   128
  0
VERTEX
  5
7C1
100
AcDbEntity
  8
LAY-3
  6
CONTINUOUS
 62
     1
100
AcDbVertex
100
AcDb2dVertex
 10
176.8
 20
96.433975
 30
0.0
  0
VERTEX
  5
7C2
100
AcDbEntity
  8
LAY-3
  6
CONTINUOUS
 62
     1
100
AcDbVertex
100
AcDb2dVertex
 10
108.886361
 20
164.053322
 30
0.0
  0
SEQEND
  5
7C3
100
AcDbEntity
  8
LAY-3
  6
CONTINUOUS
 62
     1
  0
LINE
  5
7C4
100
AcDbEntity
  8
LAY-3
  6
CONTINUOUS
 62
     1
100
AcDbLine
 10
175.560647
 20
97.315169
 30
0.0
 11
176.8
 21
96.433975
 31
0.0
  0
LINE
  5
7C5
100
AcDbEntity
  8
LAY-3
  6
CONTINUOUS
 62
     1
100
AcDbLine
 10
176.8
 20
96.433975
 30
0.0
 11
175.913432
 21
97.669489
 31
0.0
  0
CIRCLE
  5
7C6
100
AcDbEntity
  8
LAY-3
  6
CONTINUOUS
 62
     1
100
AcDbCircle
 10
105.0
 20
155.0
 30
0.0
 40
4.0
  0
TEXT
  5
7C7
100
AcDbEntity
  8
LAY-3
  6
CONTINUOUS
 62
     3
100
AcDbText
 10
102.971573
 20
152.171573
 30
0.0
 40
5.656854
  1
26
 41
0.5
  7
EXCADSTD
 72
     5
 11
107.497056
 21
152.171573
 31
0.0
100
AcDbText
  0
POLYLINE
  5
7C8
100
AcDbEntity
  8
LAY-3
  6
CONTINUOUS
 62
     1
100
AcDb2dPolyline
 66
     1
 10
0.0
 20
0.0
 30
0.0
 70
   128
  0
VERTEX
  5
7C9
100
AcDbEntity
  8
LAY-3
  6
CONTINUOUS
 62
     1
100
AcDbVertex
100
AcDb2dVertex
 10
130.594187
 20
132.35
 30
0.0
  0
VERTEX
  5
7CA
100
AcDbEntity
  8
LAY-3
  6
CONTINUOUS
 62
     1
100
AcDbVertex
100
AcDb2dVertex
 10
108.695424
 20
153.469039
 30
0.0
  0
SEQEND
  5
7CB
100
AcDbEntity
  8
LAY-3
  6
CONTINUOUS
 62
     1
  0
LINE
  5
7CC
100
AcDbEntity
  8
LAY-3
  6
CONTINUOUS
 62
     1
100
AcDbLine
 10
129.340935
 20
133.211313
 30
0.0
 11
130.594187
 21
132.35
 31
0.0
  0
LINE
  5
7CD
100
AcDbEntity
  8
LAY-3
  6
CONTINUOUS
 62
     1
100
AcDbLine
 10
130.594187
 20
132.35
 30
0.0
 11
129.688023
 21
133.571215
 31
0.0
  0
CIRCLE
  5
7CE
100
AcDbEntity
  8
LAY-3
  6
CONTINUOUS
 62
     1
100
AcDbCircle
 10
105.0
 20
165.0
 30
0.0
 40
4.0
  0
TEXT
  5
7CF
100
AcDbEntity
  8
LAY-3
  6
CONTINUOUS
 62
     3
100
AcDbText
 10
102.971573
 20
162.171573
 30
0.0
 40
5.656854
  1
28
 41
0.5
  7
EXCADSTD
 72
     5
 11
107.497056
 21
162.171573
 31
0.0
100
AcDbText
  0
CIRCLE
  5
7D0
100
AcDbEntity
  8
LAY-3
  6
CONTINUOUS
 62
     1
100
AcDbCircle
 10
105.0
 20
175.0
 30
0.0
 40
4.0
  0
TEXT
  5
7D1
100
AcDbEntity
  8
LAY-3
  6
CONTINUOUS
 62
     3
100
AcDbText
 10
102.971573
 20
172.171573
 30
0.0
 40
5.656854
  1
23
 41
0.5
  7
EXCADSTD
 72
     5
 11
107.497056
 21
172.171573
 31
0.0
100
AcDbText
  0
POLYLINE
  5
7D2
100
AcDbEntity
  8
LAY-3
  6
CONTINUOUS
 62
     1
100
AcDb2dPolyline
 66
     1
 10
0.0
 20
0.0
 30
0.0
 70
   128
  0
VERTEX
  5
7D3
100
AcDbEntity
  8
LAY-3
  6
CONTINUOUS
 62
     1
100
AcDbVertex
100
AcDb2dVertex
 10
174.615172
 20
104.633975
 30
0.0
  0
VERTEX
  5
7D4
100
AcDbEntity
  8
LAY-3
  6
CONTINUOUS
 62
     1
100
AcDbVertex
100
AcDb2dVertex
 10
107.813215
 20
172.156442
 30
0.0
  0
SEQEND
  5
7D5
100
AcDbEntity
  8
LAY-3
  6
CONTINUOUS
 62
     1
  0
LINE
  5
7D6
100
AcDbEntity
  8
LAY-3
  6
CONTINUOUS
 62
     1
100
AcDbLine
 10
173.382494
 20
105.524483
 30
0.0
 11
174.615172
 21
104.633975
 31
0.0
  0
LINE
  5
7D7
100
AcDbEntity
  8
LAY-3
  6
CONTINUOUS
 62
     1
100
AcDbLine
 10
174.615172
 20
104.633975
 30
0.0
 11
173.737939
 21
105.876135
 31
0.0
  0
CIRCLE
  5
7D8
100
AcDbEntity
  8
LAY-3
  6
CONTINUOUS
 62
     1
100
AcDbCircle
 10
105.0
 20
185.0
 30
0.0
 40
4.0
  0
TEXT
  5
7D9
100
AcDbEntity
  8
LAY-3
  6
CONTINUOUS
 62
     3
100
AcDbText
 10
102.971573
 20
182.171573
 30
0.0
 40
5.656854
  1
24
 41
0.5
  7
EXCADSTD
 72
     5
 11
107.497056
 21
182.171573
 31
0.0
100
AcDbText
  0
POLYLINE
  5
7DA
100
AcDbEntity
  8
LAY-3
  6
CONTINUOUS
 62
     1
100
AcDb2dPolyline
 66
     1
 10
0.0
 20
0.0
 30
0.0
 70
   128
  0
VERTEX
  5
7DB
100
AcDbEntity
  8
LAY-3
  6
CONTINUOUS
 62
     1
100
AcDbVertex
100
AcDb2dVertex
 10
177.6
 20
106.45
 30
0.0
  0
VERTEX
  5
7DC
100
AcDbEntity
  8
LAY-3
  6
CONTINUOUS
 62
     1
100
AcDbVertex
100
AcDb2dVertex
 10
107.714984
 20
182.062507
 30
0.0
  0
SEQEND
  5
7DD
100
AcDbEntity
  8
LAY-3
  6
CONTINUOUS
 62
     1
  0
LINE
  5
7DE
100
AcDbEntity
  8
LAY-3
  6
CONTINUOUS
 62
     1
100
AcDbLine
 10
176.398288
 20
107.381873
 30
0.0
 11
177.6
 21
106.45
 31
0.0
  0
LINE
  5
7DF
100
AcDbEntity
  8
LAY-3
  6
CONTINUOUS
 62
     1
100
AcDbLine
 10
177.6
 20
106.45
 30
0.0
 11
176.765474
 21
107.721246
 31
0.0
  0
CIRCLE
  5
7E0
100
AcDbEntity
  8
LAY-3
  6
CONTINUOUS
 62
     1
100
AcDbCircle
 10
105.0
 20
195.0
 30
0.0
 40
4.0
  0
TEXT
  5
7E1
100
AcDbEntity
  8
LAY-3
  6
CONTINUOUS
 62
     3
100
AcDbText
 10
102.971573
 20
192.171573
 30
0.0
 40
5.656854
  1
29
 41
0.5
  7
EXCADSTD
 72
     5
 11
107.497056
 21
192.171573
 31
0.0
100
AcDbText
  0
POLYLINE
  5
7E2
100
AcDbEntity
  8
LAY-3
  6
CONTINUOUS
 62
     1
100
AcDb2dPolyline
 66
     1
 10
0.0
 20
0.0
 30
0.0
 70
   128
  0
VERTEX
  5
7E3
100
AcDbEntity
  8
LAY-3
  6
CONTINUOUS
 62
     1
100
AcDbVertex
100
AcDb2dVertex
 10
164.1
 20
147.55
 30
0.0
  0
VERTEX
  5
7E4
100
AcDbEntity
  8
LAY-3
  6
CONTINUOUS
 62
     1
100
AcDbVertex
100
AcDb2dVertex
 10
108.119094
 20
192.495753
 30
0.0
  0
SEQEND
  5
7E5
100
AcDbEntity
  8
LAY-3
  6
CONTINUOUS
 62
     1
  0
LINE
  5
7E6
100
AcDbEntity
  8
LAY-3
  6
CONTINUOUS
 62
     1
100
AcDbLine
 10
162.773824
 20
148.294149
 30
0.0
 11
164.1
 21
147.55
 31
0.0
  0
LINE
  5
7E7
100
AcDbEntity
  8
LAY-3
  6
CONTINUOUS
 62
     1
100
AcDbLine
 10
164.1
 20
147.55
 30
0.0
 11
163.086855
 21
148.684036
 31
0.0
  0
CIRCLE
  5
7E8
100
AcDbEntity
  8
LAY-3
  6
CONTINUOUS
 62
     1
100
AcDbCircle
 10
105.0
 20
205.0
 30
0.0
 40
4.0
  0
TEXT
  5
7E9
100
AcDbEntity
  8
LAY-3
  6
CONTINUOUS
 62
     3
100
AcDbText
 10
102.971573
 20
202.171573
 30
0.0
 40
5.656854
  1
30
 41
0.5
  7
EXCADSTD
 72
     5
 11
107.497056
 21
202.171573
 31
0.0
100
AcDbText
  0
POLYLINE
  5
7EA
100
AcDbEntity
  8
LAY-3
  6
CONTINUOUS
 62
     1
100
AcDb2dPolyline
 66
     1
 10
0.0
 20
0.0
 30
0.0
 70
   128
  0
VERTEX
  5
7EB
100
AcDbEntity
  8
LAY-3
  6
CONTINUOUS
 62
     1
100
AcDbVertex
100
AcDb2dVertex
 10
172.883122
 20
187.85
 30
0.0
  0
VERTEX
  5
7EC
100
AcDbEntity
  8
LAY-3
  6
CONTINUOUS
 62
     1
100
AcDbVertex
100
AcDb2dVertex
 10
108.878149
 20
204.020224
 30
0.0
  0
SEQEND
  5
7ED
100
AcDbEntity
  8
LAY-3
  6
CONTINUOUS
 62
     1
  0
LINE
  5
7EE
100
AcDbEntity
  8
LAY-3
  6
CONTINUOUS
 62
     1
100
AcDbLine
 10
171.36758
 20
187.975032
 30
0.0
 11
172.883122
 21
187.85
 31
0.0
  0
LINE
  5
7EF
100
AcDbEntity
  8
LAY-3
  6
CONTINUOUS
 62
     1
100
AcDbLine
 10
172.883122
 20
187.85
 30
0.0
 11
171.490052
 21
188.4598
 31
0.0
  0
CIRCLE
  5
7F0
100
AcDbEntity
  8
LAY-3
  6
CONTINUOUS
 62
     1
100
AcDbCircle
 10
270.0
 20
263.968801
 30
0.0
 40
4.0
  0
TEXT
  5
7F1
100
AcDbEntity
  8
LAY-3
  6
CONTINUOUS
 62
     3
100
AcDbText
 10
267.971573
 20
261.140374
 30
0.0
 40
5.656854
  1
33
 41
0.5
  7
EXCADSTD
 72
     5
 11
272.497056
 21
261.140374
 31
0.0
100
AcDbText
  0
CIRCLE
  5
7F2
100
AcDbEntity
  8
LAY-3
  6
CONTINUOUS
 62
     1
100
AcDbCircle
 10
105.0
 20
213.5
 30
0.0
 40
4.0
  0
TEXT
  5
7F3
100
AcDbEntity
  8
LAY-3
  6
CONTINUOUS
 62
     3
100
AcDbText
 10
102.971573
 20
210.671573
 30
0.0
 40
5.656854
  1
32
 41
0.5
  7
EXCADSTD
 72
     5
 11
107.497056
 21
210.671573
 31
0.0
100
AcDbText
  0
CIRCLE
  5
7F4
100
AcDbEntity
  8
LAY-3
  6
CONTINUOUS
 62
     1
100
AcDbCircle
 10
105.0
 20
222.05
 30
0.0
 40
4.0
  0
TEXT
  5
7F5
100
AcDbEntity
  8
LAY-3
  6
CONTINUOUS
 62
     3
100
AcDbText
 10
102.971573
 20
219.221573
 30
0.0
 40
5.656854
  1
31
 41
0.5
  7
EXCADSTD
 72
     5
 11
107.497056
 21
219.221573
 31
0.0
100
AcDbText
  0
LINE
  5
7F6
100
AcDbEntity
  8
LAY-5
  6
CONTINUOUS
 62
     4
100
AcDbLine
 10
292.4
 20
7.0
 30
0.0
 11
292.4
 21
66.0
 31
0.0
  0
LINE
  5
7F7
100
AcDbEntity
  8
LAY-5
  6
CONTINUOUS
 62
     1
100
AcDbLine
 10
292.4
 20
66.0
 30
0.0
 11
292.4
 21
76.0
 31
0.0
  0
LINE
  5
7F8
100
AcDbEntity
  8
LAY-5
  6
CONTINUOUS
 62
     4
100
AcDbLine
 10
348.4
 20
46.0
 30
0.0
 11
348.4
 21
33.0
 31
0.0
  0
LINE
  5
7F9
100
AcDbEntity
  8
LAY-5
  6
CONTINUOUS
 62
     1
100
AcDbLine
 10
302.4
 20
76.0
 30
0.0
 11
302.4
 21
66.0
 31
0.0
  0
LINE
  5
7FA
100
AcDbEntity
  8
LAY-5
  6
CONTINUOUS
 62
     1
100
AcDbLine
 10
352.4
 20
76.0
 30
0.0
 11
352.4
 21
66.0
 31
0.0
  0
LINE
  5
7FB
100
AcDbEntity
  8
LAY-5
  6
CONTINUOUS
 62
     1
100
AcDbLine
 10
372.4
 20
76.0
 30
0.0
 11
372.4
 21
66.0
 31
0.0
  0
LINE
  5
7FC
100
AcDbEntity
  8
LAY-5
  6
CONTINUOUS
 62
     1
100
AcDbLine
 10
342.4
 20
76.0
 30
0.0
 11
342.4
 21
66.0
 31
0.0
  0
LINE
  5
7FD
100
AcDbEntity
  8
LAY-5
  6
CONTINUOUS
 62
     1
100
AcDbLine
 10
302.4
 20
56.0
 30
0.0
 11
392.4
 21
56.0
 31
0.0
  0
TEXT
  5
7FE
100
AcDbEntity
  8
LAY-5
  6
CONTINUOUS
 62
     3
100
AcDbText
 10
293.4
 20
66.5
 30
0.0
 40
4.0
  1
番号
 41
0.84
  7
EXCADSTD
 72
     5
 11
300.7328
 21
66.5
 31
0.0
100
AcDbText
  0
TEXT
  5
7FF
100
AcDbEntity
  8
LAY-5
  6
CONTINUOUS
 62
     3
100
AcDbText
 10
308.2
 20
66.4
 30
0.0
 40
4.0
  1
品名
 41
2.94
  7
EXCADSTD
 72
     5
 11
333.8648
 21
66.4
 31
0.0
100
AcDbText
  0
TEXT
  5
800
100
AcDbEntity
  8
LAY-5
  6
CONTINUOUS
 62
     3
100
AcDbText
 10
343.4
 20
66.4
 30
0.0
 40
4.0
  1
数量
 41
0.84
  7
EXCADSTD
 72
     5
 11
350.7328
 21
66.4
 31
0.0
100
AcDbText
  0
TEXT
  5
801
100
AcDbEntity
  8
LAY-5
  6
CONTINUOUS
 62
     3
100
AcDbText
 10
353.3
 20
66.5
 30
0.0
 40
4.0
  1
材質
 41
1.89
  7
EXCADSTD
 72
     5
 11
369.7988
 21
66.5
 31
0.0
100
AcDbText
  0
TEXT
  5
802
100
AcDbEntity
  8
LAY-5
  6
CONTINUOUS
 62
     3
100
AcDbText
 10
375.4
 20
66.4
 30
0.0
 40
4.0
  1
摘要
 41
2.415
  7
EXCADSTD
 72
     5
 11
396.4818
 21
66.4
 31
0.0
100
AcDbText
  0
TEXT
  5
803
100
AcDbEntity
  8
LAY-5
  6
CONTINUOUS
 62
     3
100
AcDbText
 10
305.7
 20
41.5
 30
0.0
 40
4.0
  1
製図
 41
3.255
  7
EXCADSTD
 72
     5
 11
334.1146
 21
41.5
 31
0.0
100
AcDbText
  0
TEXT
  5
804
100
AcDbEntity
  8
LAY-5
  6
CONTINUOUS
 62
     3
100
AcDbText
 10
360.4
 20
41.5
 30
0.0
 40
4.0
  1
図番
 41
3.255
  7
EXCADSTD
 72
     5
 11
388.8146
 21
41.5
 31
0.0
100
AcDbText
  0
TEXT
  5
805
100
AcDbEntity
  8
LAY-5
  6
CONTINUOUS
 62
     3
100
AcDbText
 10
326.40884
 20
8.7
 30
0.0
 40
5.0
  1
伊藤工機株式会社
 41
1.008
  7
EXCADSTD
 72
     5
 11
374.40884
 21
8.7
 31
0.0
100
AcDbText
  0
POLYLINE
  5
806
100
AcDbEntity
  8
LAY-5
  6
CONTINUOUS
 62
     4
100
AcDb2dPolyline
 66
     1
 10
0.0
 20
0.0
 30
0.0
 70
   128
  0
VERTEX
  5
807
100
AcDbEntity
  8
LAY-5
  6
CONTINUOUS
 62
     4
100
AcDbVertex
100
AcDb2dVertex
 10
18.0
 20
289.0
 30
0.0
  0
VERTEX
  5
808
100
AcDbEntity
  8
LAY-5
  6
CONTINUOUS
 62
     4
100
AcDbVertex
100
AcDb2dVertex
 10
402.0
 20
289.0
 30
0.0
  0
VERTEX
  5
809
100
AcDbEntity
  8
LAY-5
  6
CONTINUOUS
 62
     4
100
AcDbVertex
100
AcDb2dVertex
 10
402.0
 20
7.0
 30
0.0
  0
VERTEX
  5
80A
100
AcDbEntity
  8
LAY-5
  6
CONTINUOUS
 62
     4
100
AcDbVertex
100
AcDb2dVertex
 10
18.0
 20
7.0
 30
0.0
  0
VERTEX
  5
80B
100
AcDbEntity
  8
LAY-5
  6
CONTINUOUS
 62
     4
100
AcDbVertex
100
AcDb2dVertex
 10
18.0
 20
289.0
 30
0.0
  0
SEQEND
  5
80C
100
AcDbEntity
  8
LAY-5
  6
CONTINUOUS
 62
     4
  0
LINE
  5
80D
100
AcDbEntity
  8
LAY-5
  6
CONTINUOUS
 62
     4
100
AcDbLine
 10
292.4
 20
66.0
 30
0.0
 11
402.0
 21
66.0
 31
0.0
  0
LINE
  5
80E
100
AcDbEntity
  8
LAY-5
  6
CONTINUOUS
 62
     1
100
AcDbLine
 10
402.0
 20
71.0
 30
0.0
 11
292.4
 21
71.0
 31
0.0
  0
LINE
  5
80F
100
AcDbEntity
  8
LAY-5
  6
CONTINUOUS
 62
     4
100
AcDbLine
 10
402.0
 20
46.0
 30
0.0
 11
292.4
 21
46.0
 31
0.0
  0
LINE
  5
810
100
AcDbEntity
  8
LAY-5
  6
CONTINUOUS
 62
     1
100
AcDbLine
 10
292.4
 20
41.0
 30
0.0
 11
402.0
 21
41.0
 31
0.0
  0
LINE
  5
811
100
AcDbEntity
  8
LAY-5
  6
CONTINUOUS
 62
     1
100
AcDbLine
 10
292.4
 20
76.0
 30
0.0
 11
402.0
 21
76.0
 31
0.0
  0
TEXT
  5
812
100
AcDbEntity
  8
LAY-5
  6
CONTINUOUS
 62
     3
100
AcDbText
 10
363.35174
 20
48.331095
 30
0.0
 40
5.6
  1
組立図
 41
1.155
  7
EXCADSTD
 72
     5
 11
386.45174
 21
48.331095
 31
0.0
100
AcDbText
  0
TEXT
  5
813
100
AcDbEntity
  8
LAY-5
  6
CONTINUOUS
 62
     3
100
AcDbText
 10
304.65
 20
35.5
 30
0.0
 40
3.6
  1
'０６年　５月１７日
 41
0.8132
  7
EXCADSTD
 72
     5
 11
338.849999
 21
35.5
 31
0.0
100
AcDbText
  0
LINE
  5
814
100
AcDbEntity
  8
LAY-5
  6
CONTINUOUS
 62
     4
100
AcDbLine
 10
292.4
 20
33.0
 30
0.0
 11
402.0
 21
33.0
 31
0.0
  0
LINE
  5
815
100
AcDbEntity
  8
LAY-5
  6
CONTINUOUS
 62
     4
100
AcDbLine
 10
292.4
 20
17.0
 30
0.0
 11
402.0
 21
17.0
 31
0.0
  0
LINE
  5
816
100
AcDbEntity
  8
LAY-5
  6
CONTINUOUS
 62
     1
100
AcDbLine
 10
292.4
 20
29.0
 30
0.0
 11
402.0
 21
29.0
 31
0.0
  0
LINE
  5
817
100
AcDbEntity
  8
LAY-5
  6
CONTINUOUS
 62
     1
100
AcDbLine
 10
386.0
 20
17.0
 30
0.0
 11
386.0
 21
33.0
 31
0.0
  0
LINE
  5
818
100
AcDbEntity
  8
LAY-5
  6
CONTINUOUS
 62
     1
100
AcDbLine
 10
370.0
 20
17.0
 30
0.0
 11
370.0
 21
33.0
 31
0.0
  0
LINE
  5
819
100
AcDbEntity
  8
LAY-5
  6
CONTINUOUS
 62
     1
100
AcDbLine
 10
354.0
 20
17.0
 30
0.0
 11
354.0
 21
33.0
 31
0.0
  0
LINE
  5
81A
100
AcDbEntity
  8
LAY-5
  6
CONTINUOUS
 62
     1
100
AcDbLine
 10
338.0
 20
17.0
 30
0.0
 11
338.0
 21
33.0
 31
0.0
  0
TEXT
  5
81B
100
AcDbEntity
  8
LAY-5
  6
CONTINUOUS
 62
     3
100
AcDbText
 10
388.55
 20
29.4
 30
0.0
 40
3.2
  1
製図
 41
1.49625
  7
EXCADSTD
 72
     5
 11
398.99924
 21
29.4
 31
0.0
100
AcDbText
  0
TEXT
  5
81C
100
AcDbEntity
  8
LAY-5
  6
CONTINUOUS
 62
     3
100
AcDbText
 10
372.55
 20
29.4
 30
0.0
 40
3.2
  1
設計
 41
1.49625
  7
EXCADSTD
 72
     5
 11
382.99924
 21
29.4
 31
0.0
100
AcDbText
  0
TEXT
  5
81D
100
AcDbEntity
  8
LAY-5
  6
CONTINUOUS
 62
     3
100
AcDbText
 10
356.55
 20
29.4
 30
0.0
 40
3.2
  1
検図
 41
1.49625
  7
EXCADSTD
 72
     5
 11
366.99924
 21
29.4
 31
0.0
100
AcDbText
  0
TEXT
  5
81E
100
AcDbEntity
  8
LAY-5
  6
CONTINUOUS
 62
     3
100
AcDbText
 10
340.55
 20
29.4
 30
0.0
 40
3.2
  1
照査
 41
1.49625
  7
EXCADSTD
 72
     5
 11
350.99924
 21
29.4
 31
0.0
100
AcDbText
  0
LINE
  5
81F
100
AcDbEntity
  8
LAY-5
  6
CONTINUOUS
 62
     1
100
AcDbLine
 10
307.4
 20
33.0
 30
0.0
 11
307.4
 21
17.0
 31
0.0
  0
LINE
  5
820
100
AcDbEntity
  8
LAY-5
  6
CONTINUOUS
 62
     1
100
AcDbLine
 10
322.4
 20
33.0
 30
0.0
 11
322.4
 21
17.0
 31
0.0
  0
TEXT
  5
821
100
AcDbEntity
  8
LAY-5
  6
CONTINUOUS
 62
     3
100
AcDbText
 10
294.6
 20
29.4
 30
0.0
 40
3.2
  1
尺度
 41
1.49625
  7
EXCADSTD
 72
     5
 11
305.04924
 21
29.4
 31
0.0
100
AcDbText
  0
TEXT
  5
822
100
AcDbEntity
  8
LAY-5
  6
CONTINUOUS
 62
     3
100
AcDbText
 10
324.7
 20
29.3
 30
0.0
 40
3.2
  1
図法
 41
1.49625
  7
EXCADSTD
 72
     5
 11
335.14924
 21
29.3
 31
0.0
100
AcDbText
  0
TEXT
  5
823
100
AcDbEntity
  8
LAY-5
  6
CONTINUOUS
 62
     3
100
AcDbText
 10
307.8
 20
29.3
 30
0.0
 40
3.2
  1
図面サイズ
 41
0.7455
  7
EXCADSTD
 72
     5
 11
322.0
 21
29.3
 31
0.0
100
AcDbText
  0
TEXT
  5
824
100
AcDbEntity
  8
LAY-5
  6
CONTINUOUS
 62
     3
100
AcDbText
 10
311.7
 20
21.5
 30
0.0
 40
3.2
  1
Ａ３
 41
0.84
  7
EXCADSTD
 72
     5
 11
317.56624
 21
21.5
 31
0.0
100
AcDbText
  0
TEXT
  5
825
100
AcDbEntity
  8
LAY-5
  6
CONTINUOUS
 62
     3
100
AcDbText
 10
323.4
 20
21.0
 30
0.0
 40
3.6
  1
第３角法
 41
0.84
  7
EXCADSTD
 72
     5
 11
337.8
 21
21.0
 31
0.0
100
AcDbText
  0
INSERT
  5
826
100
AcDbEntity
  8
LAY-5
  6
CONTINUOUS
 62
     0
100
AcDbBlockReference
  2
SYM-1
 10
394.6
 20
22.7
 30
0.0
  0
INSERT
  5
827
100
AcDbEntity
  8
LAY-5
  6
CONTINUOUS
 62
     0
100
AcDbBlockReference
  2
SYM-2
 10
377.9
 20
23.1
 30
0.0
  0
INSERT
  5
828
100
AcDbEntity
  8
LAY-5
  6
CONTINUOUS
 62
     0
100
AcDbBlockReference
  2
SYM-3
 10
362.1
 20
23.1
 30
0.0
  0
INSERT
  5
829
100
AcDbEntity
  8
LAY-5
  6
CONTINUOUS
 62
     0
100
AcDbBlockReference
  2
SYM-4
 10
345.6
 20
22.9
 30
0.0
  0
TEXT
  5
82A
100
AcDbEntity
  8
LAY-5
  6
CONTINUOUS
 62
     3
100
AcDbText
 10
294.96
 20
21.04
 30
0.0
 40
3.6
  1
１：２
 41
0.84
  7
EXCADSTD
 72
     5
 11
305.76
 21
21.04
 31
0.0
100
AcDbText
  0
LINE
  5
82B
100
AcDbEntity
  8
LAY-6
  6
CONTINUOUS
 62
     4
100
AcDbLine
 10
96.0
 20
289.0
 30
0.0
 11
96.0
 21
255.0
 31
0.0
  0
LINE
  5
82C
100
AcDbEntity
  8
LAY-6
  6
CONTINUOUS
 62
     4
100
AcDbLine
 10
18.0
 20
255.0
 30
0.0
 11
96.0
 21
255.0
 31
0.0
  0
LINE
  5
82D
100
AcDbEntity
  8
LAY-6
  6
CONTINUOUS
 62
     4
100
AcDbLine
 10
51.5
 20
289.0
 30
0.0
 11
96.0
 21
289.0
 31
0.0
  0
LINE
  5
82E
100
AcDbEntity
  8
LAY-6
  6
CONTINUOUS
 62
     4
100
AcDbLine
 10
18.0
 20
276.0
 30
0.0
 11
96.0
 21
276.0
 31
0.0
  0
LINE
  5
82F
100
AcDbEntity
  8
LAY-6
  6
CONTINUOUS
 62
     4
100
AcDbLine
 10
51.5
 20
289.0
 30
0.0
 11
51.5
 21
255.0
 31
0.0
  0
LINE
  5
830
100
AcDbEntity
  8
LAY-6
  6
CONTINUOUS
 62
     1
100
AcDbLine
 10
51.5
 20
284.0
 30
0.0
 11
96.0
 21
284.0
 31
0.0
  0
LINE
  5
831
100
AcDbEntity
  8
LAY-6
  6
CONTINUOUS
 62
     1
100
AcDbLine
 10
66.5
 20
284.0
 30
0.0
 11
66.5
 21
255.0
 31
0.0
  0
LINE
  5
832
100
AcDbEntity
  8
LAY-6
  6
CONTINUOUS
 62
     1
100
AcDbLine
 10
81.5
 20
284.0
 30
0.0
 11
81.5
 21
255.0
 31
0.0
  0
TEXT
  5
833
100
AcDbEntity
  8
LAY-6
  6
CONTINUOUS
 62
     3
100
AcDbText
 10
18.7
 20
271.9
 30
0.0
 40
3.2
  1
    １以  上      ４以下
 41
0.5325
  7
EXCADSTD
 72
     5
 11
51.100001
 21
271.9
 31
0.0
100
AcDbText
  0
TEXT
  5
834
100
AcDbEntity
  8
LAY-6
  6
CONTINUOUS
 62
     3
100
AcDbText
 10
18.7
 20
267.9
 30
0.0
 40
3.2
  1
    ４を超え    １６以下
 41
0.582188
  7
EXCADSTD
 72
     5
 11
51.100001
 21
267.9
 31
0.0
100
AcDbText
  0
TEXT
  5
835
100
AcDbEntity
  8
LAY-6
  6
CONTINUOUS
 62
     3
100
AcDbText
 10
18.7
 20
263.9
 30
0.0
 40
3.2
  1
  １６を超え    ６３以下
 41
0.6102
  7
EXCADSTD
 72
     5
 11
51.100001
 21
263.9
 31
0.0
100
AcDbText
  0
TEXT
  5
836
100
AcDbEntity
  8
LAY-6
  6
CONTINUOUS
 62
     3
100
AcDbText
 10
18.7
 20
259.9
 30
0.0
 40
3.2
  1
  ６３を超え  ２５０以下
 41
0.640561
  7
EXCADSTD
 72
     5
 11
51.100001
 21
259.9
 31
0.0
100
AcDbText
  0
TEXT
  5
837
100
AcDbEntity
  8
LAY-6
  6
CONTINUOUS
 62
     3
100
AcDbText
 10
18.7
 20
255.9
 30
0.0
 40
3.2
  1
２５０を超え１０００以下
 41
0.70875
  7
EXCADSTD
 72
     5
 11
51.100001
 21
255.9
 31
0.0
100
AcDbText
  0
TEXT
  5
838
100
AcDbEntity
  8
LAY-6
  6
CONTINUOUS
 62
     3
100
AcDbText
 10
58.8
 20
285.2
 30
0.0
 40
3.2
  1
寸法公差
 41
2.02125
  7
EXCADSTD
 72
     5
 11
89.6
 21
285.2
 31
0.0
100
AcDbText
  0
TEXT
  5
839
100
AcDbEntity
  8
LAY-6
  6
CONTINUOUS
 62
     3
100
AcDbText
 10
21.7
 20
284.5
 30
0.0
 40
3.2
  1
呼ビ寸法の区分
 41
0.975
  7
EXCADSTD
 72
     5
 11
47.7
 21
284.5
 31
0.0
100
AcDbText
  0
TEXT
  5
83A
100
AcDbEntity
  8
LAY-6
  6
CONTINUOUS
 62
     3
100
AcDbText
 10
26.2
 20
278.4
 30
0.0
 40
3.2
  1
単位  ｍｍ
 41
0.744444
  7
EXCADSTD
 72
     5
 11
42.2
 21
278.4
 31
0.0
100
AcDbText
  0
TEXT
  5
83B
100
AcDbEntity
  8
LAY-6
  6
CONTINUOUS
 62
     3
100
AcDbText
 10
54.2
 20
280.1
 30
0.0
 40
3.2
  1
精  級
 41
0.69
  7
EXCADSTD
 72
     5
 11
63.8
 21
280.1
 31
0.0
100
AcDbText
  0
TEXT
  5
83C
100
AcDbEntity
  8
LAY-6
  6
CONTINUOUS
 62
     3
100
AcDbText
 10
54.2
 20
276.9
 30
0.0
 40
3.2
  1
  ±
 41
0.631111
  7
EXCADSTD
 72
     5
 11
60.06624
 21
276.9
 31
0.0
100
AcDbText
  0
TEXT
  5
83D
100
AcDbEntity
  8
LAY-6
  6
CONTINUOUS
 62
     3
100
AcDbText
 10
69.1
 20
280.1
 30
0.0
 40
3.2
  1
中  級
 41
0.69
  7
EXCADSTD
 72
     5
 11
78.7
 21
280.1
 31
0.0
100
AcDbText
  0
TEXT
  5
83E
100
AcDbEntity
  8
LAY-6
  6
CONTINUOUS
 62
     3
100
AcDbText
 10
69.1
 20
276.9
 30
0.0
 40
3.2
  1
  ±
 41
0.631111
  7
EXCADSTD
 72
     5
 11
74.96624
 21
276.9
 31
0.0
100
AcDbText
  0
TEXT
  5
83F
100
AcDbEntity
  8
LAY-6
  6
CONTINUOUS
 62
     3
100
AcDbText
 10
84.0
 20
280.1
 30
0.0
 40
3.2
  1
粗  級
 41
0.69
  7
EXCADSTD
 72
     5
 11
93.6
 21
280.1
 31
0.0
100
AcDbText
  0
TEXT
  5
840
100
AcDbEntity
  8
LAY-6
  6
CONTINUOUS
 62
     3
100
AcDbText
 10
84.0
 20
276.9
 30
0.0
 40
3.2
  1
  ±
 41
0.631111
  7
EXCADSTD
 72
     5
 11
89.86624
 21
276.9
 31
0.0
100
AcDbText
  0
TEXT
  5
841
100
AcDbEntity
  8
LAY-6
  6
CONTINUOUS
 62
     3
100
AcDbText
 10
52.7
 20
272.0
 30
0.0
 40
3.2
  1
０．０５
 41
0.84
  7
EXCADSTD
 72
     5
 11
65.5
 21
272.0
 31
0.0
100
AcDbText
  0
TEXT
  5
842
100
AcDbEntity
  8
LAY-6
  6
CONTINUOUS
 62
     3
100
AcDbText
 10
52.7
 20
268.0
 30
0.0
 40
3.2
  1
０．０７
 41
0.84
  7
EXCADSTD
 72
     5
 11
65.5
 21
268.0
 31
0.0
100
AcDbText
  0
TEXT
  5
843
100
AcDbEntity
  8
LAY-6
  6
CONTINUOUS
 62
     3
100
AcDbText
 10
52.7
 20
264.0
 30
0.0
 40
3.2
  1
０．１
 41
0.84
  7
EXCADSTD
 72
     5
 11
62.3
 21
264.0
 31
0.0
100
AcDbText
  0
TEXT
  5
844
100
AcDbEntity
  8
LAY-6
  6
CONTINUOUS
 62
     3
100
AcDbText
 10
52.7
 20
260.0
 30
0.0
 40
3.2
  1
０．２
 41
0.84
  7
EXCADSTD
 72
     5
 11
62.3
 21
260.0
 31
0.0
100
AcDbText
  0
TEXT
  5
845
100
AcDbEntity
  8
LAY-6
  6
CONTINUOUS
 62
     3
100
AcDbText
 10
52.7
 20
256.0
 30
0.0
 40
3.2
  1
０．３
 41
0.84
  7
EXCADSTD
 72
     5
 11
62.3
 21
256.0
 31
0.0
100
AcDbText
  0
TEXT
  5
846
100
AcDbEntity
  8
LAY-6
  6
CONTINUOUS
 62
     3
100
AcDbText
 10
69.4
 20
271.9
 30
0.0
 40
3.2
  1
０．１
 41
0.84
  7
EXCADSTD
 72
     5
 11
79.0
 21
271.9
 31
0.0
100
AcDbText
  0
TEXT
  5
847
100
AcDbEntity
  8
LAY-6
  6
CONTINUOUS
 62
     3
100
AcDbText
 10
69.4
 20
267.9
 30
0.0
 40
3.2
  1
０．２
 41
0.84
  7
EXCADSTD
 72
     5
 11
79.0
 21
267.9
 31
0.0
100
AcDbText
  0
TEXT
  5
848
100
AcDbEntity
  8
LAY-6
  6
CONTINUOUS
 62
     3
100
AcDbText
 10
69.4
 20
263.9
 30
0.0
 40
3.2
  1
０．３
 41
0.84
  7
EXCADSTD
 72
     5
 11
79.0
 21
263.9
 31
0.0
100
AcDbText
  0
TEXT
  5
849
100
AcDbEntity
  8
LAY-6
  6
CONTINUOUS
 62
     3
100
AcDbText
 10
69.4
 20
259.9
 30
0.0
 40
3.2
  1
０．５
 41
0.84
  7
EXCADSTD
 72
     5
 11
79.0
 21
259.9
 31
0.0
100
AcDbText
  0
TEXT
  5
84A
100
AcDbEntity
  8
LAY-6
  6
CONTINUOUS
 62
     3
100
AcDbText
 10
69.4
 20
255.9
 30
0.0
 40
3.2
  1
０．８
 41
0.84
  7
EXCADSTD
 72
     5
 11
79.0
 21
255.9
 31
0.0
100
AcDbText
  0
TEXT
  5
84B
100
AcDbEntity
  8
LAY-6
  6
CONTINUOUS
 62
     3
100
AcDbText
 10
84.0
 20
271.8
 30
0.0
 40
3.2
  1
０．３
 41
0.84
  7
EXCADSTD
 72
     5
 11
93.6
 21
271.8
 31
0.0
100
AcDbText
  0
TEXT
  5
84C
100
AcDbEntity
  8
LAY-6
  6
CONTINUOUS
 62
     3
100
AcDbText
 10
84.0
 20
267.8
 30
0.0
 40
3.2
  1
０．５
 41
0.84
  7
EXCADSTD
 72
     5
 11
93.6
 21
267.8
 31
0.0
100
AcDbText
  0
TEXT
  5
84D
100
AcDbEntity
  8
LAY-6
  6
CONTINUOUS
 62
     3
100
AcDbText
 10
84.0
 20
263.8
 30
0.0
 40
3.2
  1
０．７
 41
0.84
  7
EXCADSTD
 72
     5
 11
93.6
 21
263.8
 31
0.0
100
AcDbText
  0
TEXT
  5
84E
100
AcDbEntity
  8
LAY-6
  6
CONTINUOUS
 62
     3
100
AcDbText
 10
84.0
 20
259.8
 30
0.0
 40
3.2
  1
１．２
 41
0.84
  7
EXCADSTD
 72
     5
 11
93.6
 21
259.8
 31
0.0
100
AcDbText
  0
TEXT
  5
84F
100
AcDbEntity
  8
LAY-6
  6
CONTINUOUS
 62
     3
100
AcDbText
 10
84.0
 20
255.8
 30
0.0
 40
3.2
  1
２．０
 41
0.84
  7
EXCADSTD
 72
     5
 11
93.6
 21
255.8
 31
0.0
100
AcDbText
  0
TEXT
  5
850
100
AcDbEntity
  8
LAY-7
  6
CONTINUOUS
 62
     3
100
AcDbText
 10
293.8
 20
283.6
 30
0.0
 40
4.0
  1
符号
 41
0.672
  7
EXCADSTD
 72
     5
 11
299.66624
 21
283.6
 31
0.0
100
AcDbText
  0
TEXT
  5
851
100
AcDbEntity
  8
LAY-7
  6
CONTINUOUS
 62
     3
100
AcDbText
 10
395.1
 20
283.5
 30
0.0
 40
4.0
  1
印
 41
0.672
  7
EXCADSTD
 72
     5
 11
397.66
 21
283.5
 31
0.0
100
AcDbText
  0
TEXT
  5
852
100
AcDbEntity
  8
LAY-7
  6
CONTINUOUS
 62
     3
100
AcDbText
 10
306.3
 20
283.5
 30
0.0
 40
4.0
  1
年  月  日
 41
0.532245
  7
EXCADSTD
 72
     5
 11
322.3
 21
283.5
 31
0.0
100
AcDbText
  0
TEXT
  5
853
100
AcDbEntity
  8
LAY-7
  6
CONTINUOUS
 62
     3
100
AcDbText
 10
334.5
 20
283.8
 30
0.0
 40
4.0
  1
訂        正        記        事
 41
0.446694
  7
EXCADSTD
 72
     5
 11
385.700001
 21
283.8
 31
0.0
100
AcDbText
  0
POLYLINE
  5
854
100
AcDbEntity
  8
LAY-7
  6
CONTINUOUS
 62
     4
100
AcDb2dPolyline
 66
     1
 10
0.0
 20
0.0
 30
0.0
 70
   128
  0
VERTEX
  5
855
100
AcDbEntity
  8
LAY-7
  6
CONTINUOUS
 62
     4
100
AcDbVertex
100
AcDb2dVertex
 10
292.0
 20
289.0
 30
0.0
  0
VERTEX
  5
856
100
AcDbEntity
  8
LAY-7
  6
CONTINUOUS
 62
     4
100
AcDbVertex
100
AcDb2dVertex
 10
402.0
 20
289.0
 30
0.0
  0
VERTEX
  5
857
100
AcDbEntity
  8
LAY-7
  6
CONTINUOUS
 62
     4
100
AcDbVertex
100
AcDb2dVertex
 10
402.0
 20
255.0
 30
0.0
  0
VERTEX
  5
858
100
AcDbEntity
  8
LAY-7
  6
CONTINUOUS
 62
     4
100
AcDbVertex
100
AcDb2dVertex
 10
292.0
 20
255.0
 30
0.0
  0
VERTEX
  5
859
100
AcDbEntity
  8
LAY-7
  6
CONTINUOUS
 62
     4
100
AcDbVertex
100
AcDb2dVertex
 10
292.0
 20
289.0
 30
0.0
  0
SEQEND
  5
85A
100
AcDbEntity
  8
LAY-7
  6
CONTINUOUS
 62
     4
  0
LINE
  5
85B
100
AcDbEntity
  8
LAY-7
  6
CONTINUOUS
 62
     1
100
AcDbLine
 10
292.0
 20
282.2
 30
0.0
 11
402.0
 21
282.2
 31
0.0
  0
LINE
  5
85C
100
AcDbEntity
  8
LAY-7
  6
CONTINUOUS
 62
     1
100
AcDbLine
 10
402.0
 20
275.4
 30
0.0
 11
292.0
 21
275.4
 31
0.0
  0
LINE
  5
85D
100
AcDbEntity
  8
LAY-7
  6
CONTINUOUS
 62
     1
100
AcDbLine
 10
292.0
 20
268.6
 30
0.0
 11
402.0
 21
268.6
 31
0.0
  0
LINE
  5
85E
100
AcDbEntity
  8
LAY-7
  6
CONTINUOUS
 62
     1
100
AcDbLine
 10
402.0
 20
261.8
 30
0.0
 11
292.0
 21
261.8
 31
0.0
  0
LINE
  5
85F
100
AcDbEntity
  8
LAY-7
  6
CONTINUOUS
 62
     1
100
AcDbLine
 10
392.0
 20
289.0
 30
0.0
 11
392.0
 21
255.0
 31
0.0
  0
LINE
  5
860
100
AcDbEntity
  8
LAY-7
  6
CONTINUOUS
 62
     1
100
AcDbLine
 10
326.0
 20
289.0
 30
0.0
 11
326.0
 21
255.0
 31
0.0
  0
LINE
  5
861
100
AcDbEntity
  8
LAY-7
  6
CONTINUOUS
 62
     1
100
AcDbLine
 10
302.0
 20
289.0
 30
0.0
 11
302.0
 21
255.0
 31
0.0
  0
ENDSEC
  0
SECTION
  2
OBJECTS
  0
DICTIONARY
  5
19
100
AcDbDictionary
  3
ACAD_GROUP
350
1A
  3
ACAD_MLINESTYLE
350
1B
  0
DICTIONARY
  5
1A
102
{ACAD_REACTORS
330
19
102
}
100
AcDbDictionary
  0
DICTIONARY
  5
1B
102
{ACAD_REACTORS
330
19
102
}
100
AcDbDictionary
  3
STANDARD
350
1C
  0
MLINESTYLE
  5
1C
102
{ACAD_REACTORS
330
1B
102
}
100
AcDbMlineStyle
  2
Standard
 70
     0
  3

 62
     0
 51
90.0
 52
90.0
 71
     2
 49
0.5
 62
   256
  6
ByLayer
 49
-0.5
 62
   256
  6
ByLayer
  0
ENDSEC
  0
EOF
